» » »

El Otro Yo, Tu Angel Bass tabs (ver.1)

Artists:  A B C D E F G H I J K L M N O P Q R S T U V W X Y Z # 

Tu Angel Bass tabs (ver.1)

El Otro Yo Tabs
 Rating:
4/5 (4 votes)
Tu Angel lessons Tabs too difficult? Try these video lessons and learn fast
1
                ++++++++++++++++++++++++
| El Otro Yo- Tu Angel |
++++++++++++++++++++++++


"Donde se expresa tu esencia luminica..."

Tuning: EADG


Intro
1.
G|-------------|
D|------33~----|
A|--3-32-------|
E|-------------|

Verse
"Si tu Angel..."
2.
G|----------------------------------------------------|
D|----------------------------------------------------|
A|----------3-3-33------------------------------------|--x2
E|-1-1-111-1------3-0-1-3-3-333-33-3-333-2------------|

"Regalale un impulso..."
3.
G|----------------------------------------------------|
D|----------------2-3-5----------------7/5/7----------|
A|----------3-3-33-----------------3-5----------------|
E|-1-1-111-1-----------3-3-333-33-3-------------------|

"Dale corage y otro lenguaje..."
4.
G|----------------------------------------------------|
D|----------------------------------------------------|
A|----------3-3-33------------------------------------|
E|-1-1-111-1------3-0-1-3-3-333-33-3-333-2------------|

Chorus
"Decidiste surgir al mundo..." 
5.
G|----------------------------------------------------|
D|----------------------------------------------------|
A|----------------------------------------------------|
E|-5x-5x-5x-5x-5x-5x-5x-5x----------------------------|

Outro
"Con un motivo clarooo" 
6.
G|----------------------------------------------------|
D|----------------------------------------------------|
A|--------------333-33-333-222-22-22-2----------------|--x2
E|-333-3-33-33-3----------------------5-5-5-55555-----|

Verse
"Maravillosas respuestas.."
7.
G|----------------------------------------------------|
D|------------------------------------7/5/7-----------|
A|----------3-3-33-----------------35-----------------|
E|-1-1-111-1------3-0-1-33-333-33-3-------------------|

"Donde se expresa..."
8.
G|----------------------------------------------------|
D|----------------------------------------------------|
A|----------3-3-33------------------------------------|
E|-1-1-111-1------3-0-1-3-3-333-33-3-333-2------------|

9.
G|----------------------------------------------------|
D|----------------2-3-5-------------------------------|
A|----------3-3-33------------------------------------|
E|-1-1-111-1-----------3-3-333-33-3-------------------|

Bridge
10.        
G|-------------|
D|-------------|
A|-5-4-5-7-5-4-|--x3
E|-------------|

11.
G|----------------------|
D|-2-0-----2-0-----2-0--|
A|-----4-5-----4-5----4-|
E|----------------------|

12.          
G|-------------|
D|-------------|
A|-5-4-5-7-5-4-|--x3
E|--5----------|

13.
G|--------------------------|
D|-2-0-----2-0-----2-0------|
A|-----4-5-----4-5----4-5~--|
E|--------------------------|

Verse
"Si tu angel.." 
14.
G|-------------------------------------------------------|
D|-------------------------------------------------7/5/7-|
A|--------------------------3-3-33---------------35------|
E|-333333333333333-1-1-111-1------3-0-1-3-3-333-3--------|

"Regalale un impulso..."
15.
G|----------------------------------------------------|
D|----------------------------------------------------|
A|----------3-3-33------------------------------------|--x2
E|-1-1-111-1------3-0-1-3-3-333-33-3-333-2------------|

Chorus
"Decidiste surgir al mundo..."
16.
G|----------------------------------------------------|
D|----------------------------------------------------|
A|----------------------------------------------------|
E|-5x-5x-5x-5x-5x-5x-5x-5x----------------------------|

Outro
"Con un motivo claro..." 
17.
G|----------------------------------------------------|
D|----------------------------------------------------|
A|--------------333-33-333-222-22-22-2----------------|--x4
E|-333-3-33-33-3----------------------5-5-5-55555-----|

18.
G|---------------|
D|-------3-3~----|
A|--3-32---------|
E|---------------|


Lyrics:


Si tu angel ya no esta transparente
Y vos ya no sos vos, donde quieres ir?
Si no hay esparanza para todo

Regalale un impulso feliz
La razon y la codicia no entienden
Dale corage y otro lenguajee

Decidiste surgir al mundo 
Y luchar con tus brazos en alto
Con un motivo claro

Maravillosas respuestas que conversan
La mentira te golpeó y te dió fuerza
Donde se expresa tu esencia luminica



+++++++++++++++++++++++++++++++++
| RaiLeff                       |
+++++++++++++++++++++++++++++++++
            
Submit corrections

comments powered by Disqus
↑ Back to top | El Otro Yo Bass for Tu Angel. Lyrics for acoustic guitar and electric guitar. 1 Tablatures and chords are parodies/interpretations of the original songs. You may use it for private study, scholarship, research or language learning purposes only