» » »

Sida Bass tabs (ver.1)

Artists:  A B C D E F G H I J K L M N O P Q R S T U V W X Y Z # 

Sida Bass tabs (ver.1)

El Otro Yo
Rating:
0/5 (0 votes)

Hard to play? Try these video lessons and learn fast.
                ++++++++++++++++++++
| El Otro Yo- Sida |
++++++++++++++++++++


"Se puede contraer??"

Tuning: EADG


Intro.
1.
G|--------------------------|
D|--------------------------|
A|-2222-3333----------------|
E|-----------1111-3333------|

2.
G|--------------------------|
D|--------------------------|
A|-2222-33333333-52x--------|
E|--------------------------|

3.
G|--------------------------|
D|--------------------------|
A|-2222-3333----------------|
E|-----------1111-3333------|

4.
G|--------------------------|
D|--------------------------|
A|-2222-33333333-52x--------|
E|--------------------------|

Verse
"Guarda con hacer el amor con los demas..."
5.
G|--------------------------|
D|--------------------------|
A|-2222-3333----------------|--x5
E|-----------1111-3333------|

Chorus
"Se puede contraer..."
6.
G|--------------------------|
D|--------------------------|
A|-20-20-30-30-22-11--------|--x4
E|--------------------------|

Outro
"Cuidate el pito, Cuidate el pito..."
7.
G|--------------------------|
D|--------------------------|
A|-22222222222222222--35667-|
E|--------------------------|

8.
G|--------------------------|
D|--------------------------|
A|-22-33-------22-33--------|
E|-------11-33-------11-33--|

Chorus
"Se puede contraer..."
9.
G|--------------------------|
D|--------------------------|
A|-20-20-30-30-22-11--------|--x4
E|--------------------------|


Lyrics:


Guarda con hacer el amor con los demás
Guarda con hacer el amor con tu novia
Guarda con hacer el amor con tu amiga
Guarda con hacer el amor en las calles
Guarda con hacer el amor con tu esposa

Se puede contraer... Sida! Sida!
Podés contraer... Sida! Sida

Cuidate el pito, cuidate el pito...



+++++++++++++++++++++++++++++++++
| RaiLeff                       |
+++++++++++++++++++++++++++++++++
            
Hard to play? Try these video lessons and learn fast. | Correct




comments powered by Disqus
↑ Back to top | Tablatures and chords are parodies/interpretations of the original songs. You may use it for private study, scholarship, research or language learning purposes only