» » »

El Otro Yo, Perro Bass tabs (ver.1)

Artists:  A B C D E F G H I J K L M N O P Q R S T U V W X Y Z # 

Perro Bass tabs (ver.1)

El Otro Yo Tabs
 Rating:
4/5 (4 votes)
Perro lessons Tabs too difficult? Try these video lessons and learn fast
1
                +++++++++++++++++++++
| El Otro Yo- Perro |
+++++++++++++++++++++


"Vuelo azul, viaje azul..."

Tuning: EADG


Verse
"El enfermizo sonido del mundo..."
1.
G|-----------------------------------------|
D|-----------------------------------------|
A|-----------------------------------------|--x2
E|-3~--------1~--------0~--------3~--------|

Chorus
"Perro sal a buscarte hoy..."
2.
G|------------------------------------------|
D|-0~--------0------------------------------|
A|-------------0~---------------------------|
E|----------------------3-1~----------------|

Outro
3.
G|-------------------------|
D|-3~----2~----0~----------|
A|-------------------3~----|
E|-------------------------|

Verse
"Dale tu primitiva señal de hambre..."
4.
G|------------------------------------------------|
D|------------------------------------------------|
A|----------------------------------0-2-3-2-0-2-3-|
E|-3~--------1~--------0~--------3----------------|

"Vuelo azul..."
5.
G|-----------------------------------------------------------------|
D|-----------------------------------------------------------------|
A|-----------------------------------------------------------------|
E|-3-3-3-3-3-3-3-3-1-1-1-1-1-1-1-1-0-0-0-0-0-0-0-0-1-1-1-1-1-1-1-1-|

Chorus
"Aahhh..."
6.
G|-----------------------------------------------------------------|
D|-----------------------------------------------------------------|
A|-----------------------------------------------------------------|
E|-3-3-3-3-3-3-3-3-1-1-1-1-1-1-1-1-0-0-0-0-0-0-0-0-1-1-1-1-1-1-1-1-|

Verse
"El idioma no es importante..."
7.
G|------------------------------------------------|
D|------------------------------------------------|
A|----------------------------------0-2-3-2-0-2-3-|
E|-3~--------1~--------0~--------3----------------|

"Y el se maduro..."
8.
G|-----------------------------------------------------------------|
D|-----------------------------------------------------------------|
A|-----------------------------------------------------------------|
E|-3-3-3-3-3-3-3-3-1-1-1-1-1-1-1-1-0-0-0-0-0-0-0-0-3-3-3-3-3-3-3-3-|

Chorus
"Perro sal a buscarte hoy..."
9.
G|----------------------------------------|
D|-0~-------------------------------------|
A|-----------0~---------------------------|
E|--------------------3-1~----------------|

Outro
10.
G|-------------------------|
D|-3~----2~----0~----------|
A|-------------------3~----|
E|-------------------------|

Bridge
11.
G|----------------------------------------------------------------|
D|-------5~-------------3~-----------2-0-2~--0-2------------------|
A|-----5----3/5-3-----3-----2/3-2---------------------3/5~--------|
E|-3~-------------1~--------------0~-------------1-3~-------------|

12.
G|----------------------------------------------------------------|
D|-------5~-7-7-5-------3~-----------2-0-2~--0-2------------------|
A|-----5--------------3-----2/3-2---------------------3/5~--------|
E|-3~-------------1~--------------0~-------------1-3~-------------|

Chorus
"Perro sal a buscarte hoy..."
13.
G|----------------------------------------|
D|-0~-------------------------------------|
A|-----------0~---------------------------|
E|--------------------3-1~----------------|


Lyrics:


El enfermizo sonido del mundo
Te está volviendo loco, tajeándote la carne
Salpicando las paredes
Se forma la figura de un verdadero perro

Perro sal a buscarte hoy
Sin encontrarte...

Dale tu primitiva señal de hambre
A los de este gobierno... y es así
Vuelo azul... Viaje azul... Huida azul... Luz azul...

El idioma no es importante
Acaso el tiempo y el dinero sí?
El se maduró y se secó los ojos
Con palabras vacías

Perro sal a buscarte hoy
Sin encontrarte, sin encontrarte de vuelta bien



+++++++++++++++++++++++++++++++++
| RaiLeff                       |
+++++++++++++++++++++++++++++++++
            
Submit corrections

comments powered by Disqus
↑ Back to top | El Otro Yo Bass for Perro. Lyrics for acoustic guitar and electric guitar. 1 Tablatures and chords are parodies/interpretations of the original songs. You may use it for private study, scholarship, research or language learning purposes only