» » »

Me Harte Bass tabs (ver.1)

Artists:  A B C D E F G H I J K L M N O P Q R S T U V W X Y Z # 

Me Harte Bass tabs (ver.1)

El Otro Yo
Rating:
0/5 (0 votes)

Tabs too difficult? Try these video lessons and learn fast.
                ++++++++++++++++++++++++
| El Otro Yo- Me Harté |
++++++++++++++++++++++++


"Dame tu mierda, yo te daré la mia..."

Tuning: EADG


Chorus
"Me harté..."
1.
G|---------------------|
D|---------------------|
A|-33333-22-5555-55555-|--x4
E|---------------------|

Verse
"En este lugar concheto..."
2.
G|---------------------------4-2~-|
D|-------------------5~-5-5-------|
A|-0~-00~-00-2320----------5------|
E|----------------3-3-------------|

"Distingo entre el reviente y el resto..."
3.
G|--------------------------|
D|--------------------------|
A|-0~-00~-00-2320--------5~-|
E|----------------3x-33~----|

Chorus
"Dame tu mierda..."
4.
G|-----------------------------------------|
D|-----------------------------------------|
A|-33333-22-5555-55555-33333-22-5555-55555-|
E|-----------------------------------------|

"Dame tu mierda..."
5.
G|-----------------75----------------------|
D|------------7------7---------------------|
A|-33333-22-55-55------33333-22-5555-55555-|
E|-----------------------------------------|

Verse
"Oliendo lo peor posible..."
6.
G|---------------------------4-2~-|
D|-------------------5~-5-5-------|
A|-0~-00~-00-2320----------5------|
E|----------------3-3-------------|

"Y deje ke me humilles en frente de todos..."
7.
G|----------------------------|
D|----------------------------|
A|-0~-00~-00-2320-------5-55~-|
E|----------------3-33~-------|

Pre-Chorus
"Y es justo lo que querías..."
8.
G|------------------------------------------------------------------------|
D|---------------------------------------------------------0~-2~-4~-6~-7~-|
A|-0~-2320-5~-7\5~-0~-2320-5~-7\5~-0~-2320-5~-7\5~-0~-2320----------------|
E|------------------------------------------------------------------------|

Chorus
"Me ahorqué..."
9.
G|-----------------------------------------|
D|-----------------------------------------|
A|-33333-22-5555-55555-33333-22-5555-55555-|
E|-----------------------------------------|

"Y que..."
10.
G|-----------------75----------------------|
D|------------7------7---------------------|
A|-33333-22-55-55------33333-22-5555-55555-|
E|-----------------------------------------|

"No supiste amarme..."
11.
G|-----------------------------------------|
D|-----------------------------------------|
A|-33333-22-5555-55555-33333-22-5555-55555-|--x2
E|-----------------------------------------|

Verse
"En este lugar concheto..."
12.
G|---------------------------4-2~-|
D|-------------------5~-5-5-------|
A|-0~-00~-00-2320----------5------|
E|----------------3-3-------------|

"Distingo entre el reviente y el resto..."
13.
G|--------------------------|
D|--------------------------|
A|-0~-00~-00-2320--------5~-|
E|----------------3x-33~----|

Outro
14.
G|-----------------------------------------|
D|-----------------------------------------|
A|-33333-22-5555-55555-33333-22-5555-55555-|--until the end
E|-----------------------------------------|


Lyrics: 


Me harté, y estoy sonriéndote
y qué? nadie quiere oirme

En este lugar concheto
me chupo todo tu rencor
distingo entre el reviente
y el resto!

Dame tu mierda preciosura
dame tu mierda, yo te daré la mía.

Oliendo lo peor posible
tal vez hoy me deje usar
y deje que me humilles
enfrente de todos
Y es justo lo que querías
querés trascenderme
querés trascender!

Me ahorqué, y estoy sonriéndote
y qué? No supiste amarme
no supiste amarme



+++++++++++++++++++++++++++++++++
| RaiLeff                       |
+++++++++++++++++++++++++++++++++
            
Tabs too difficult? Try these video lessons and learn fast.




comments powered by Disqus
↑ Back to top | Tablatures and chords are parodies/interpretations of the original songs. You may use it for private study, scholarship, research or language learning purposes only