» » »

Locomotora Bass tabs (ver.1)

Artists:  A B C D E F G H I J K L M N O P Q R S T U V W X Y Z # 

Locomotora Bass tabs (ver.1)

El Otro Yo
Rating:
0/5 (0 votes)

Hard to play? Try these video lessons and learn fast.
                ++++++++++++++++++++++++++
| El Otro Yo- Locomotora |
++++++++++++++++++++++++++


"Me quiero quedar por siempre a tu lado..."

Tuning: EADG


Intro
1.
G|-------------------------------------|
D|-22222222-11111111-------------------|
A|-------------------44444444-22222222-|--x2
E|-------------------------------------|

Verse
"Me gusta cantar..."
2.
G|-------------------------------------|
D|-22222222-11111111-------------------|
A|-------------------44444444-22222222-|--x2
E|-------------------------------------|

Chorus
"Estas cada día más lindo..."
3.
G|---------------------------------------------------------------|
D|------------------------------11-2-----------------------------|
A|-4-4-4-4-4-42424-4-4-4-4-4-44------2~------2~----2~------2~----|--x2
E|---------------------------------------0~------------0~--------|

Verse
"Mira mis colmillos..."
4.
G|-------------------------------------|
D|-22222222-11111111-------------------|
A|-------------------44444444-22222222-|--x2
E|-------------------------------------|

Chorus
"Estas cada día más lindo..."
5.
G|---------------------------------------------------------------|
D|------------------------------11-2-----------------------------|
A|-4-4-4-4-4-42424-4-4-4-4-4-44------2~------2~----2~------2~----|--x2
E|---------------------------------------0~------------0~--------|

Bridge
6.
G|-------------------------------------|
D|-44444444-22222222-11111111-22222222-|
A|-------------------------------------|--x3
E|-------------------------------------|

7.
G|-------------------------------------|
D|-44444444-44444444-44444444-44444444-|
A|-------------------------------------|
E|-------------------------------------|

Verse
"Te voy a comer..."
8.
G|-------------------------------------|
D|-22222222-11111111-------------------|
A|-------------------44444444-22222222-|--x4
E|-------------------------------------|

Chorus
"Estas cada día más lindo..."
9.
G|---------------------------------------------------------------|
D|------------------------------11-2-----------------------------|
A|-4-4-4-4-4-42424-4-4-4-4-4-44------2~------2~----2~------2~----|--x2
E|---------------------------------------0~------------0~--------|

Bridge
10.
G|-------------------------------------|
D|-44444444-22222222-11111111-22222222-|
A|-------------------------------------|--x3
E|-------------------------------------|

11.
G|-------------------------------------|
D|-44444444-44444444-44444444-44444444-|
A|-------------------------------------|
E|-------------------------------------|

12.
G|-------------------------------------|
D|-44444444-22222222-11111111-22222222-|
A|-------------------------------------|--x1000
E|-------------------------------------|

Outro
13.
G|----------|
D|----------|
A|-2~-------|
E|----------|


Lyrics:


Me gusta cantar, me gusta reír, me gusta soñar, me gusta volar
Me gusta correr, me gusta pintar, me gusta flotar, me gusta besarte.

Estas cada día más lindo.

Mirá mis colmillos están afilados, prepárate bien, porque hoy vas a perder.
No me tengas miedo solo dame tu cuello, me quiero quedar por siempre a tu lado.

Te voy a comer, te voy a comer.
No vas a poder creer lo que te va a pasar, 
Te voy a comer, te voy a comer.
Soy locomotora, no puedo parar.



+++++++++++++++++++++++++++++++++
| RaiLeff                       |
+++++++++++++++++++++++++++++++++
            
Hard to play? Try these video lessons and learn fast. | Correct




comments powered by Disqus
↑ Back to top | Tablatures and chords are parodies/interpretations of the original songs. You may use it for private study, scholarship, research or language learning purposes only