» » »

El Otro Yo, La Ra La Bass tabs (ver.1)

Artists:  A B C D E F G H I J K L M N O P Q R S T U V W X Y Z # 

La Ra La Bass tabs (ver.1)

El Otro Yo Tabs
 Rating:
4/5 (4 votes)
La Ra La lessons Tabs too difficult? Try these video lessons and learn fast
1
                ++++++++++++++++++++++++
| El Otro Yo- La Ra La |
++++++++++++++++++++++++


"Y donde estas??"

Tuning: EADG


Verse
"La ra la..."
1.
G|--------7---------7---------7---------7--|
D|-5~-7~-----5~-7~-----5~-7~-----5~-7~-----|
A|-5~-5~-----5~-5~-----5~-5~-----5~-5~-----|
E|-----------------------------------------|

2.
G|--------7--------7-7-------777--------7--|
D|-4~-5~-----4~-5~-----4~-5~-----4~-5~-----|
A|-5~-5~-----5~-5~-----5~-5~-----5~-5~-----|
E|-----------------------------------------|

3.
G|--------7---------7---------7---------7--|
D|-5~-7~-----5~-7~-----5~-7~-----5~-7~-----|
A|-5~-5~-----5~-5~-----5~-5~-----5~-5~-----|
E|-----------------------------------------|

4.
G|--------7--------7-7-------777-|
D|-4~-5~-----4~-5~-----4~-5~-----|
A|-5~-5~-----5~-5~-----5~-5~-----|
E|-------------------------------|

5.
G|----------------7----------------7-----------|
D|-4~-5~-2~-4~-0~---4~-5~-2~-4~-0~---4~-5~-2~--|
A|-5~-5~-0~-0~-5~---5~-5~-0~-0~-5~---5~-5~-0~--|
E|---------------------------------------------|

Pre-Chorus
"Y donde estas??"
6.
G|--------------------------------------|
D|-44444444-55555555-77777777-55555555--|
A|-55555555-55555555-55555555-55555555--|--x2
E|--------------------------------------|

Chorus
7.
G|-7776-4446-7776-9999-7776-4446-7776-11-11-11-11-|
D|------------------------------------------------|
A|------------------------------------------------|--x2
E|------------------------------------------------|

8.
G|-12121211-99911-12121211-14141414-12121211-99911-12121211-161616-|
D|-----------------------------------------------------------------|
A|-----------------------------------------------------------------|
E|-----------------------------------------------------------------|

9.
G|-12121211-99911-12121211-14141414-12121211-99911-12121211-19~----|
D|-----------------------------------------------------------------|
A|-----------------------------------------------------------------|
E|-----------------------------------------------------------------|

10.
G|----18~-18~-18~-|
D|----------------|
A|----------------|
E|----------------|

Verse
"La ra la..."
11.
G|--------7---------7---------7---------7--|
D|-5~-7~-----5~-7~-----5~-7~-----5~-7~-----|
A|-5~-5~-----5~-5~-----5~-5~-----5~-5~-----|
E|-----------------------------------------|

12.
G|--------7--------7-7-------777--------7--|
D|-4~-5~-----4~-5~-----4~-5~-----4~-5~-----|
A|-5~-5~-----5~-5~-----5~-5~-----5~-5~-----|
E|-----------------------------------------|

13.
G|--------7---------7---------7---------7--|
D|-5~-7~-----5~-7~-----5~-7~-----5~-7~-----|
A|-5~-5~-----5~-5~-----5~-5~-----5~-5~-----|
E|-----------------------------------------|

14.
G|--------7--------7-7-------777-|
D|-4~-5~-----4~-5~-----4~-5~-----|
A|-5~-5~-----5~-5~-----5~-5~-----|
E|-------------------------------|

15.
G|----------------7----------------7-----------|
D|-4~-5~-2~-4~-0~---4~-5~-2~-4~-0~---4~-5~-2~--|
A|-5~-5~-0~-0~-5~---5~-5~-0~-0~-5~---5~-5~-0~--|
E|---------------------------------------------|

Pre-Chorus
"Y donde estas??"
16.
G|--------------------------------------|
D|-44444444-55555555-77777777-55555555--|
A|-55555555-55555555-55555555-55555555--|--x2
E|--------------------------------------|

Chorus
17.
G|-7776-4446-7776-9999-7776-4446-7776-11-11-11-11-|
D|------------------------------------------------|
A|------------------------------------------------|--x2
E|------------------------------------------------|

18.
G|-12121211-99911-12121211-14141414-12121211-99911-12121211-16--14-|
D|-----------------------------------------------------------------|
A|-----------------------------------------------------------------|
E|-----------------------------------------------------------------|

19.
G|-12121211-99911-12121211-14141414-12121211-99911-12121211-18~----|
D|-----------------------------------------------------------------|
A|-----------------------------------------------------------------|
E|-----------------------------------------------------------------|

Outro
20.
G|--18-18-18-18-18/19~----18-18-18-18-18/19~-|
D|----0--0--0--0~--------0--0--0--0~---------|
A|-------------------------------------------|
E|-------------------------------------------|

21.
G|--18-18-18-19-21-19-18-19-18~-|
D|----0--0--0--0--0--0--0--0~---|
A|------------------------------|
E|------------------------------|


Lyrics:


La ra la
Oooh
Y donde estas?



+++++++++++++++++++++++++++++++++
| RaiLeff                       |
+++++++++++++++++++++++++++++++++
            
Submit corrections

comments powered by Disqus
↑ Back to top | El Otro Yo Bass for La Ra La. Lyrics for acoustic guitar and electric guitar. 1 Tablatures and chords are parodies/interpretations of the original songs. You may use it for private study, scholarship, research or language learning purposes only