» » »

El Otro Yo, Ella Se Fue Bass tabs (ver.1)

Artists:  A B C D E F G H I J K L M N O P Q R S T U V W X Y Z # 

Ella Se Fue Bass tabs (ver.1)

El Otro Yo Tabs
Rating:
0/5 (0 votes)
Ella Se Fue lessons Tabs too difficult? Try these video lessons and learn fast
                +++++++++++++++++++++++++++
| El Otro Yo- Ella Se Fue |
+++++++++++++++++++++++++++


"La cruz del sur se cansó de escuchar..."

Tuning: EADG


Intro.
1.
G|----------------------------|
D|-6-7-9--2~------------------|
A|----------------------------|
E|----------------4-5-7--0~---|

Verse
"Mirando el mar..." 
2.
G|---------------------------------|
D|---------------------------------|
A|---------------------------------|
E|-0-0-0-0-5-5-5-5-0-0-0-0-5-5-5-5-|

"Creyendo en el, me voi..."
3.
G|-------------------------------------|
D|---2----2-------------2----2---------|
A|-----2----2-224202------2----2-22420-|
E|00----------------00-----------------|

4.
G|-6-----6-7-9--9-9-9-7-6--6-----6-7-6~-|
D|--7---7-------------------7---7-------|
A|----7-----------------------7---------|
E|--------------------------------------|

Pre-Chorus
"Vacío este lugar..."
5.
G|---------------999--------|
D|--777777777777----7-------|
A|--------------------------|
E|--------------------------|

Verse
"El día se fue, las espinas kedan..."
6.
G|---------------------------------|
D|---------------------------------|
A|---------------------------------|--x2
E|-0-0-0-0-5-5-5-5-0-0-0-0-5-5-5-5-|

"Ella se fue, me voi..."
7.
G|-------------------------------------|
D|---2----2-------------2----2---------|
A|-----2----2-224202------2----2-22420-|
E|00----------------00-----------------|

Pre-Chorus
"Vacío, mi corazón..."
8.
G|----------------------------|
D|----------------------------|
A|----------------------------|
E|-555555555555555555---------|

Chorus
"Saludo a todos desde acá..." 
9.
G|--------------|
D|--------------|
A|--------------|--x10
E|-0-0-0-5555---|

"Vacío, este lugar..."
10.
G|---------------999--------|
D|--777777777777----7-------|
A|--------------------------|
E|--------------------------|

Outro
11.
G|-14-13-11-13-11-9-11-9--9-11-13-|
D|--------------------------------|
A|--------------------------------|
E|--------------------------------|

12.
G|-14-13-11-13-11-9-11-9--9-11-9--|
D|--------------------------------|
A|--------------------------------|
E|--------------------------------|

Verse
"Ella se fue, no creo ke vuelva..."
13.
G|---------------------------------|
D|---------------------------------|
A|---------------------------------|--x2
E|-0-0-0-0-5-5-5-5-0-0-0-0-5-5-5-5-|

"La cruz del sur..."
14.
G|-------------------------------------|
D|---2----2-------------2----2---------|
A|-----2----2-224202------2----2-22420-|
E|00----------------00-----------------|

Pre-Chorus
"Voi rumbo a la eternidad..."
15.
G|----------------------------|
D|----------------------------|
A|----------------------------|
E|-555555555555555555---------|

Chorus
"Saludo a todos desde aka..."
16.
G|--------------|
D|--------------|
A|--------------|--x10
E|-0-0-0-5555---|

"Vacío este lugar.."
17.
G|---------------999--------|
D|--777777777777----7-------|
A|--------------------------|
E|--------------------------|


Lyrics:


Ella se fue, no creo ke vuelva
Mirando el mar hipnotiza mi ser
Creyendo en el me voi...
Creyendo en el me voi...

Vacío este lugar

El día se fue, las espinas quedan
El agua salada ardiendo
Ella se fue, me voi...
Ella se fue, me voi...

Vacío mi corazón
Saludo a todos desde acá
Vacío este lugar

Ella se fue, no creo que vuelva
El muelle mas alto hacia el fondo del mar
La cruz del sur se cansó de escuchar
La cruz del sur se cansó de escuchar

Voy rumbo a la eternidad...



+++++++++++++++++++++++++++++++++
| RaiLeff                       |
+++++++++++++++++++++++++++++++++
            
Submit corrections

comments powered by Disqus
↑ Back to top | El Otro Yo Bass for Ella Se Fue. Lyrics for acoustic guitar and electric guitar. Tablatures and chords are parodies/interpretations of the original songs. You may use it for private study, scholarship, research or language learning purposes only