» » »

El Otro Yo, Dibujito Bass tabs (ver.1)

Artists:  A B C D E F G H I J K L M N O P Q R S T U V W X Y Z # 

Dibujito Bass tabs (ver.1)

El Otro Yo Tabs
 Rating:
4/5 (4 votes)
Dibujito lessons Tabs too difficult? Try these video lessons and learn fast
1
                ++++++++++++++++++++++++
| El Otro Yo- Dibujito |
++++++++++++++++++++++++


"Yo quiero regalarte un mundo de colores..."

Tuning: EADG

Intro
"Aaah..."
1.
G|-7-9-6--6---66-6--7-9-6--6---66-6--|
D|--0-0-00-000--0-0--0-0-00-000--0-0-|
A|-----------------------------------|
E|-----------------------------------|

"Amor...Abril..."
2.
G|-7-9-6--6---66-6--7-9-6--6---66-6--|
D|--0-0-00-000--0-0--0-0-00-000--0-0-|
A|-----------------------------------|--x2
E|-----------------------------------|

"Un dibujito..."
3.
G|-7-9---0---0---0---0--------0---0---0---0-------|
D|--0-0-3-3-2-2-0-2-3-3-5555-3-3-2-2-0-2-3-3-5555-|
A|------------------------------------------------|--x2
E|------------------------------------------------|

                   "Yo te voi a buscar..."
4.
G|-7-9-6--6---66-6--7-9-6--6---66-6--7-9-6--6---66-6--|
D|--0-0-00-----------0-0--------------0-0-------------|
A|---------000--0-0------00-000--0-0------00-000--0-0-|
E|----------------------------------------------------|


5.
G|-7-9-11--11---1111-6-7-9-11--11---1111-6-7-9-11--11---1111--|
D|--0-0--00--000----0-0-0-0--00--000----0-0-0-0--00--000----0-|
A|------------------------------------------------------------|
E|------------------------------------------------------------|

"Voi a buscarte..."
6.
G|-6-7-9-14--14--14-16\14--16\14--16\14-18\14--18\14--18\14---|
D|--0-0-0--00--00--0-----00-----00-----0-----00-----00-----00-|
A|------------------------------------------------------------|
E|------------------------------------------------------------|

7.
G|-16\14--16\14--16\14-18\14--18\14--18\14--|
D|------00-----00-----0-----00-----00-----0-|
A|------------------------------------------|--x3
E|------------------------------------------|

"Yo quiero regalarte un mundo de colores..."
8.
G|-------------------------------------------------|
D|-------0--0--------0--0--------0--0--------0--0--|
A|-------------------------------------------------|
E|-5/7-77-77-7-3/5-55-55-5-1/2-22-22-2-3/5-55-55-5-|

"Amor, abril..."
9.
G|-------------------------------------------------|
D|-------0--0--------0--0--------0--0--------0--0--|
A|-------------------------------------------------|
E|-5/7-77-77-7-5/9-99-99-9-1/2-22-22-2-3/5-55-55-5-|

"Yo quiero regalarte un mundo de colores..."
10.
G|-------------------------------------------------|
D|-------0--0--------0--0--------0--0--------0--0--|
A|-------------------------------------------------|
E|-5/7-77-77-7-3/5-55-55-5-1/2-22-22-2-3/5-55-55-5-|

"Amor, abril..."
11.
G|-------------------------------------------------|
D|-------0--0--------0--0--------0--0--------0--0--|
A|-------------------------------------------------|
E|-5/7-77-77-7-5/9-99-99-9-1/2-22-22-2-3/5-55-55-5-|

"Voi a buscarte..."
12.
G|-------------------------------------------------|
D|-------0--0--------0--0--------0--0--------0--0--|
A|-------------------------------------------------|
E|-5/7-77-77-7-3/5-55-55-5-1/2-22-22-2-3/5-55-55-5-|

13.
G|-----------------------------------------------------------|
D|-------0--0--------0--0-----------0---------------0----0---|
A|-----------------------------------------------------------|
E|-5/7-77-77-7-5/9-99-99-9-9/14-1414-1414-12\10-1010-1010-10-|

"Yo quiero regalarte un mundo de colores..."
14.
G|-------------------------------------------------|
D|-------0--0--------0--0--------0--0--------0--0--|
A|-------------------------------------------------|
E|-5/7-77-77-7-3/5-55-55-5-1/2-22-22-2-3/5-55-55-5-|

"Amor...Abril...Voi a buscarte..."
15.
G|------------------------------------------------------------------|
D|-------0--0--------0--0-----------0----0--------00--19-000-19--4~-|
A|------------------------------------------------------------------|
E|-5/7-77-77-7-5/9-99-99-9-9/12-1212-1212-12-12/14------------------|


Lyrics:


Amor, Abril
Yo soy un dibujito

Un dibujito, animálo
Un dibujito...

Yo te voi a buscar... Voi a buscarte...

Yo quiero regalarte un mundo de colores
Yo quiero regalarte un mundo, un mundo de colores

Amor, Abril...Amor, Abril...



+++++++++++++++++++++++++++++++++
| RaiLeff                       |
+++++++++++++++++++++++++++++++++
            
Submit corrections

comments powered by Disqus
↑ Back to top | El Otro Yo Bass for Dibujito. Lyrics for acoustic guitar and electric guitar. 1 Tablatures and chords are parodies/interpretations of the original songs. You may use it for private study, scholarship, research or language learning purposes only