» » »

Corazones Bass tabs (ver.1)

Artists:  A B C D E F G H I J K L M N O P Q R S T U V W X Y Z # 

Corazones Bass tabs (ver.1)

El Otro Yo
Rating:
0/5 (0 votes)

Hard to play? Try these video lessons and learn fast.
                +++++++++++++++++++++++++
| El Otro Yo- Corazones |
+++++++++++++++++++++++++


"Toda esta rabia chorreando son las heridas sangrando..."

Tuning: EAGD


Intro
1.
G|----------------------------------------------------------------------|
D|-2222222222222222-2222222222222222------------------------------------|
A|-----------------------------------0000000000000000----------00000000-|--x2
E|----------------------------------------------------22222222----------|

Verse
"Corazones perdedores..."
2.
G|----------------------------------------------------------------------|
D|-2222222222222222-2222222222222222------------------------------------|
A|-----------------------------------0000000000000000----------00000000-|
E|----------------------------------------------------22222222----------|

"Una roca en las entrañas..."
3.
G|----------------------------------------------------------------------|
D|-2222222222222222-----------------------------------------------------|
A|------------------4444444422222222-0000000000000000----------00000000-|
E|----------------------------------------------------22222222----------|

Chorus
"Toda esta rabia chorreando..."
4.
G|------------------------------------------------------------|
D|-2222----------------2222---------------2222----------------|
A|------0000------2222------0000------2-2------0000------2222-|
E|-----------2222----------------2222---------------2222------|

"Son las heridas sangrando..."
5.
G|-------------------------|
D|-2222--------------------|
A|------0000------2-2-0~---|
E|-----------2222----------|

Verse
"En la furia de la gente..."
6.
G|----------------------------------------------------------------------|
D|-2222222222222222-2222222222222222------------------------------------|
A|-----------------------------------0000000000000000----------00000000-|
E|----------------------------------------------------22222222----------|

"No te aflijas hombrecito..."
7.
G|----------------------------------------------------------------------|
D|-2222222222222222-----------------------------------------------------|
A|------------------4444444422222222-0000000000000000----------00000000-|
E|----------------------------------------------------22222222----------|

Chorus
"Toda esta rabia chorreando..."
8.
G|------------------------------------------------------------|
D|-2222----------------2222---------------2222----------------|
A|------0000------2222------0000------2-2------0000------2222-|
E|-----------2222----------------2222---------------2222------|

"Son las heridas sangrando..."
9.
G|---------------------|
D|-2222----------------|
A|------0000------2222-|
E|-----------2222------|

Bridge
"Odio, odio, odio, odio..."
10.
G|---------------------------------------|
D|---------------2-0---------------------|
A|-5555555-2-222-----55555-77-2-2222-222-|--x2
E|---------------------------------------|

"Odio, odio, odio, odio..."
11.
G|------------------------------------|
D|------------------------------------|
A|-------0-2-2222222-------0-2-222222-|
E|-33333-------------33333------------|

12.
G|-------------------------0-----------------------------------|
D|-33333-0-----------33333------------33333-0------------------|
A|---------2-2222222---------2-222222---------2-222222-------0-|
E|-----------------------------------------------------33333---|

Verse
"Corazones perdedores..."
13.
G|----------------------------------------------------------------------|
D|-2222222222222222-2222222222222222------------------------------------|
A|-----------------------------------0000000000000000----------00000000-|
E|----------------------------------------------------22222222----------|

"Una roca en las entrañas..."
14.
G|----------------------------------------------------------------------|
D|-2222222222222222-----------------------------------------------------|
A|------------------4444444422222222-0000000000000000----------00000000-|
E|----------------------------------------------------22222222----------|

Chorus
"Toda esta rabia chorreando..."
15.
G|------------------------------------------------------------|
D|-2222----------------2222---------------2222----------------|
A|------0000------2222------0000------2-2------0000------2222-|
E|-----------2222----------------2222---------------2222------|

"Son las heridas sangrando..."
16.
G|-------------------------|
D|-2222--------------------|
A|------0000------2-2-0~---|
E|-----------2222----------|

Outro
17.
G|----------------------------------------------------------------------|
D|-2222222222222222-2222222222222222------------------------------------|
A|-----------------------------------0000000000000000----------00000000-|--x2
E|----------------------------------------------------22222222----------|

Chorus
"Toda esta rabia chorreando..."
18.
G|------------------------------------------------------------|
D|-2222----------------2222---------------2222----------------|
A|------0000------2222------0000------2-2------0000------2222-|
E|-----------2222----------------2222---------------2222------|

"Son las heridas sangrando..."
19.
G|-------------------------|
D|-2222--------------------|
A|------0000------2-2-0~---|
E|-----------2222----------|


Lyrics:


Corazones perdedores, todos estamos cantando
Siempre al borde de la muerte, refugiados en la ira.
Una roca en las entrañas, ellos son los perdedores
Disparando los cañones de la angustia y el dolor.

Toda esta rabia chorreando
Son las heridas sangrando

En la furia de la gente viviendo sus vidas perras,
mucho de lo que sentiste una verdadera mierda.
No te aflijas hombrecito, los hombres no lloran.
No te aflijas hombrecito hoy solo quieres morir.

Odio, odio, odio, odio...



+++++++++++++++++++++++++++++++++
| RaiLeff                       |
+++++++++++++++++++++++++++++++++
            
Hard to play? Try these video lessons and learn fast. | Correct




comments powered by Disqus
↑ Back to top | Tablatures and chords are parodies/interpretations of the original songs. You may use it for private study, scholarship, research or language learning purposes only