» » »

El Otro Yo, Cometa Bass tabs (ver.1)

Artists:  A B C D E F G H I J K L M N O P Q R S T U V W X Y Z # 

Cometa Bass tabs (ver.1)

El Otro Yo Tabs
Rating:
0/5 (0 votes)
Cometa lessons Tabs too difficult? Try these video lessons and learn fast
                ++++++++++++++++++++++
| El Otro Yo- Cometa |
++++++++++++++++++++++


"Quiero atrapar por siempre este momento..."

Tuning: EADG

              
Intro
1.
G|-----------------------------------------|
D|-----------------------------1-2--22-222-|
A|-22--44--------------22--44--------------|--x2
E|---------44--44-4-4----------------------|

Verse
"Y si me llamas con la mente..."
2.
G|---------------------------------------------------------------------|
D|-2222222222222222-0000000000000000------------------0000000000000000-|
A|-----------------------------------3333333333333333------------------|
E|---------------------------------------------------------------------|

"Ciberamor satelital..."
3.
G|-------------------------------------------------------------|
D|-2222220022222222-000000----------------------------00000000-|
A|------------------------3333332222-33333333332200------------|
E|-------------------------------------------------33----------|

Intro
4.
G|-----------------------------------------|
D|-----------------------------1-2--22-222-|
A|-22--44--------------22--44--------------|--x2
E|---------44--44-4-4----------------------|

Verse
"Tigre de fuego blanco..."
5.
G|---------------------------------------------------------------------|
D|-2222222222222222-0000000000000000------------------0000000000000000-|
A|-----------------------------------3333333333333333------------------|
E|---------------------------------------------------------------------|

"Perdiendo todos mis recuerdos..."
6.
G|---------------------------------------------------------------------|
D|-2222220022222222-000000----------------------------0000000000000000-|
A|------------------------3333332222-33333333332200--------------------|
E|-------------------------------------------------33------------------|

Chorus
"Cometa, cometa, pasas todo el tiempo volando..."
7.
G|-----------------------------------------------------------------------|
D|-----------------------------------------------------------------------|
A|-----------------------------------33332333-33332333-23332333-23232323-|
E|-3333333333333333-3333333333333333-------------------------------------|

"Distintos...Pero pocas veces regresas al mismo..."
8.
G|----------------------------------------------------------|
D|-------------------------5--7--7~-------------------------|
A|-5--7--7~----------------------------------------33333333-|
E|----------------------------------------------------------|

Outro
9.
G|-----------------------------------------|
D|-----------------------------1-2--22-222-|
A|-22--44--------------22--44--------------|--x2
E|---------44--44-4-4----------------------|

Verse
"Prendiendo fuego mi pasado..."
10.
G|---------------------------------------------------------------------|
D|-2222222222222222-0000000000000000------------------0000000000000000-|
A|-----------------------------------3333333333333333------------------|
E|---------------------------------------------------------------------|

"Desmanes de vidas y muertes..."
11.
G|---------------------------------------------------------------------|
D|-2222220022222222-000000----------------------------0000000000000000-|
A|------------------------3333332222-33333333332200--------------------|
E|-------------------------------------------------33------------------|

Chorus
"Andate, andate, antes de que se nos vaya..."
12.
G|-----------------------------------------------------------------------|
D|-----------------------------------------------------------------------|
A|-----------------------------------33332333-33332333-23332333-23232323-|
E|-3333333333333333-3333333333333333-------------------------------------|

"Este momento...Antes de que el viento lo lleve tan lejos..."
13.
G|------------------------------------------------------------------|
D|-------------------------5--7--7~---------------------------------|
A|-5--7--7~----------------------------------------3333333333333333-|
E|------------------------------------------------------------------|

"Cometa, cometa, pasas todo el tiempo volando..."
14.
G|-----------------------------------------------------------------------|
D|-----------------------------------------------------------------------|
A|-----------------------------------33332333-33332333-23332333-23232323-|
E|-3333333333333333-3333333333333333-------------------------------------|

"Distintos...Pero pocas veces regresas al mismo..."
15.
G|----------------------------------------------------------|
D|-------------------------5--7--7~-------------------------|
A|-5--7--7~----------------------------------------33333333-|
E|----------------------------------------------------------|

Outro
16.
G|-------------------------5-4-0----------|
D|-2~----4-2-0~----2-0--------------------|
A|---------------------3~--------3~-------|
E|----------------------------------------|


Letra:


Y si me llamas con la mente yo tengo prendido el radar,
ciberamor satiletal, sos invisible y te conozco igual.
Tigre de fuego blanco, volando voy sobre tu lomo.
Perdiendo todos mis recuerdos me hundo en tus ojos de lago.

Cometa, cometa, pasas todo el tiempo volando,
visitando tantos mundos distintos,
pero pocas veces regresas al mismo.

Prendiendo fuego mi pasado, me rescataste de un abismo.
Desmanes de vidas y muertes, se reproducen tan efimeras.

Andate, andate, antes de que se nos vaya el efecto.
Quiero atrapar por siempre este momento
antes de que el viento lo lleve tan lejos.



+++++++++++++++++++++++++++++++++
| RaiLeff                       |
+++++++++++++++++++++++++++++++++
            
Submit corrections

comments powered by Disqus
↑ Back to top | El Otro Yo Bass for Cometa. Lyrics for acoustic guitar and electric guitar. Tablatures and chords are parodies/interpretations of the original songs. You may use it for private study, scholarship, research or language learning purposes only