>
 >
Autodestruccion

Autodestruccion Bass Tabs

El Otro Yo - Autodestruccion chords, tabs, tablatures, lyrics

Guitar lessons | Add/correct | Request | Top 50 tabs Artists:  A B C D E F G H I J K L M N O P Q R S T U V W X Y Z 0-9

Autodestruccion Bass Tabs – El Otro Yo

CD, Sheet music, Poster

Do you like Autodestruccion? Share with your friends now
Bass Tabs
+++++++++++++++++++++++++++++++
| El Otro Yo- Autodestrucción |
+++++++++++++++++++++++++++++++


"No podrás ver mas alla de tu gravedad..."

Tuning: EADG


Verse
"Esta velocidad envía miles de..."
1.
G|----4--4--4--4--4----3--3--3--3--3----2--2--2--2--2----4--4-------------|
D|-2-2-22-22-22-22--4-4-44-44-44-44--0-0-00-00-00-00--2-2-22-22-2/7-5-3-2-|
A|------------------------------------------------------------------------|
E|------------------------------------------------------------------------|

2.
G|----------------------------------------------------------5-4-----|
D|----5--4--5--5-4----5--4--5---5-4----5--4--5--5-4----5--4-----5-4-|
A|-3-3--3--3--3----3-3--3--3--3-----3-3--3--3--3----3-3--3----------|
E|------------------------------------------------------------------|

"Mientras en otro lado hay gente muriendose..."
3.
G|-----------------------------------------------------------------|
D|-----------------------------------------------------------------|
A|-333-333-333-3-2-333-333-333-3-2-333-333-333-3-2-333-333-333-3-2-|
E|-----------------------------------------------------------------|

"En manos de otras..."
4.
G|-------------------------------------|
D|-------------------------------------|
A|-55555555-55555-3-55555555-5/77777-5-|
E|-------------------------------------|

"Y porqué habrá autodestruccion?"
5.
G|-----------------------------------------------------------------|
D|-----------------------------------------------------------------|
A|-333-333-333-3-2-333-333-333-3-2-333-333-333-3-2-333-333-333-3-2-|
E|-----------------------------------------------------------------|

"Y porqué??..."
6.
G|-------------------------------------|
D|-------------------------------------|
A|-55555555-55555-3-55555555-5/77777-5-|
E|-------------------------------------|

Chorus
"No podrás ver mas alla de tu gravedad..."
7.
G|----4--4--4--4--4----3--3--3--3--3----2--2--2--2--2----4--4-------------|
D|-2-2-22-22-22-22--4-4-44-44-44-44--0-0-00-00-00-00--2-2-22-22-2/7-5-3-2-|
A|------------------------------------------------------------------------|
E|------------------------------------------------------------------------|

"Tuyo estara..."
8.
G|----------------------------------------------------------5-4-----|
D|----5--4--5--5-4----5--4--5---5-4----5--4--5--5-4----5--4-----5-4-|
A|-3-3--3--3--3----3-3--3--3--3-----3-3--3--3--3----3-3--3----------|
E|------------------------------------------------------------------|

Verse
"Porque sos lo unico que puede salvarme..."
9.
G|-----------------------------------------------------------------|
D|-----------------------------------------------------------------|
A|-333-333-333-3-2-333-333-333-3-2-333-333-333-3-2-333-333-333-3-2-|
E|-----------------------------------------------------------------|

"Te cuidaré, te cuidaré..."
10.
G|-------------------------------------|
D|-------------------------------------|
A|-55555555-55555-3-55555555-5/77777-5-|
E|-------------------------------------|

"Llevame a la mente universal..."
11.
G|-----------------------------------------------------------------|
D|-----------------------------------------------------------------|
A|-333-333-333-3-2-333-333-333-3-2-333-333-333-3-2-333-333-333-3-2-|
E|-----------------------------------------------------------------|

"Alimentame, alimentame..."
12.
G|-------------------------------------|
D|----------------4----------4444-5577-|
A|-55555555-55555---55555555-----------|
E|-------------------------------------|

13.
G|----4--4--4--4--4----3--3--3--3--3----2--2--2--2--2----4--4-------------|
D|-2-2-22-22-22-22--4-4-44-44-44-44--0-0-00-00-00-00--2-2-22-22-2/7-5-3-2-|
A|------------------------------------------------------------------------|
E|------------------------------------------------------------------------|

14.
G|----------------------------------------------------------5-4-----|
D|----5--4--5--5-4----5--4--5---5-4----5--4--5--5-4----5--4-----5-4-|
A|-3-3--3--3--3----3-3--3--3--3-----3-3--3--3--3----3-3--3----------|
E|------------------------------------------------------------------|

Bridge
"Ohh..."
15.
G|-------------------------------------|
D|-------------------------------------|
A|-55555555-55555-3-55555555-5/77777-5-|
E|-------------------------------------|

16.
G|-----------------------------------------------------------------|
D|-----------------------------------------------------------------|
A|-333-333-333-3-2-333-333-333-3-2-333-333-333-3-2-333-333-333-3-2-|
E|-----------------------------------------------------------------|

17.
G|-----------------------------------------------------5-4-------------|
D|---------------------------4-------444-5577--------------5-4---------|
A|-55555555-55555-3-55555555---55555----------55555555---------5-4-3-2-|
E|---------------------------------------------------------------------|

Outro
18.
G|--------------|
D|--------------|
A|-3~--------5x-|
E|--------------|


Lyrics:


Esta velocidad envía miles de
Formas hacia el azul techo redondo en flor
Mientras en otro lado hay gente muriendose
En manos de otras

Y porqué habra autodestrucción en la humanidad
Que estupidez, y porqué? y porqué?

No podrás ver mas alla de tu gravedad
No encontras a tu Dios, y dentro tuyo estará?

Porque sos lo unico que puede salvarme
Te cuidaré, te cuidaré
Llevame a la mente universal, universal
Alimentame, alimentame



+++++++++++++++++++++++++++++++++
| RaiLeff                       |
+++++++++++++++++++++++++++++++++





Comments


Popular El Otro Yo tabs & chords
Cometa Bass Tabs
Popurri Bass Tabs
Sida Bass Tabs
Vacaciones Bass Tabs
Viajero Bass Tabs
Amor Fuego Chords
Amor Fuego 1 Chords
Llevame Chords
Amor Fuego Ukulele
La Msica Ukulele


Song lyrics



↑ Back to top | Tablatures and chords are parodies/interpretations of the original songs. You may use it for private study, scholarship, research or language learning purposes only
© 2014 AZChords.com Contact us | Privacy policy | DMCA | Add/correct tabs | Request tabs | Top 50 tabs