>
 >
Amor Fuego

Amor Fuego Bass Tabs

El Otro Yo - Amor Fuego chords, tabs, tablatures, lyrics

Guitar lessons | Add/correct | Request | Top 50 tabs Artists:  A B C D E F G H I J K L M N O P Q R S T U V W X Y Z 0-9

Amor Fuego Bass Tabs – El Otro Yo

CD, Sheet music, Poster

Do you like Amor Fuego? Share with your friends now
Bass TabsChordsChords v2Ukulele
++++++++++++++++++++++++++
| El Otro Yo- Amor Fuego |
++++++++++++++++++++++++++


"Soy el hombre que espera con flores..."

Tuning: EADG


Intro
1.
G|---------------------2-----------|
D|-----2-------4-----2-------------|
A|---2-------4-----0-----2~--------|
E|-0-----0-2-----2-----------------|

Verse
"Soy la mujer con la mirada gillette..."
2.
G|---------------------2-------------------------------2-----------|
D|-----2-------4-----2-----------------2-------4-----2-------------|
A|---2-------4-----0-----2~----------2-------4-----0-----2~--------|--x2
E|-0-----0-2-----2-----------------0-----0-2-----2-----------------|

Pre-Chorus
"No me importa que ames a todos..."
3.
G|----------------------------------------------------------------------------|
D|---------------------------------------------------------------2-2--2-0h2p0-|
A|-3~-3-3~-3-3-33~-2-0~-0-0~-0-0-00~-2-3~-3-3~-3-3-33~-2-0~-0-0~--------------|
E|----------------------------------------------------------------------------|

"Lo importante arriba de todo..."
4.
G|-------------------------------------------------------------------------|
D|-------------------------------------------------------------------------|
A|-3~-3-3~-3-3-33~-2-0~-0-0~-0-0-00~-2-3~-3-3~-3-3-33~-2-0~-0-0~-0-0-00~-0-|
E|-------------------------------------------------------------------------|

Verse
"Soy el hombre que espera con flores..."
5.
G|---------------------2-------------------------------2-----------|
D|-----2-------4-----2-----------------2-------4-----2-------------|
A|---2-------4-----0-----2~----------2-------4-----0-----2~--------|
E|-0-----0-2-----2-----------------0-----0-2-----2-----------------|

"Espiritu de luchador..."
6.
G|-----------------------------------------------------------------|
D|-----------------------------------------------------------------|
A|-----------------0-0-0-0-2-2-2-0-----------------0-0-0-0-2-2-2-2-|
E|-0-0-0-0-2-2-2-2-----------------0-0-0-0-2-2-2-2-----------------|

Pre-Chorus
"Un amor que destruya el machismo..."
7.
G|----------------------------------------------------------------------------|
D|---------------------------------------------------------------2-2--2-0h2p0-|
A|-3~-3-3~-3-3-33~-2-0~-0-0~-0-0-00~-2-3~-3-3~-3-3-33~-2-0~-0-0~--------------|
E|----------------------------------------------------------------------------|

"La esperanza arriba de todo..."
8.
G|-------------------------------------------------------------------------|
D|-------------------------------------------------------------------------|
A|-3~-3-3~-3-3-33~-2-0~-0-0~-0-0-00~-2-3~-3-3~-3-3-33~-2-0~-0-0~-0-0-00~-0-|
E|-------------------------------------------------------------------------|

Chorus
"Te amo en el fuego..."
9.
G|------------------------------------------------------------------------------------------------|
D|------------------------------------------------------------------------------------------------|
A|-------------------------333~--333~--333~--333~--------------------------333~--333~--333~--333~-|
E|-333~--333~--333~--333~--------------------------333~--333~--333~--333~-------------------------|
x2

Outro
"Hoy me elegiste a mi..."
10.
G|-------------7----------------------------------------------------------------------------------|
D|-----------7-----7------------------------------------------------------------------------------|
A|-5~--5~--5-----5---5-3~--3~--33~-3-33-3-5~--5~--55~-5-55-5-3~--3~--33~-3-33-3-3~--3~--33~-3-33-3|
E|------------------------------------------------------------------------------------------------|

"Y es transparente..."
11.
G|----------------------------------------------------------|
D|----------------------------------------------------------|
A|-0~--0~--00~-0-00-2-3~--3~--33~-3-33-5-0~--0~--00~-0-00-0-|
E|----------------------------------------------------------|

Chorus
"Te amo en el fuego..."
12.
G|------------------------------------------------------------------------------------------------|
D|------------------------------------------------------------------------------------------------|
A|-------------------------333~--333~--333~--333~--------------------------333~--333~--333~--333~-|
E|-333~--333~--333~--333~--------------------------333~--333~--333~--333~-------------------------|
x2

Outro
"Hoy me elegiste a mi..."
13.
G|-------------7----------------------------------------------------------------------------------|
D|-----------7-----7------------------------------------------------------------------------------|
A|-5~--5~--5-----5---5-3~--3~--33~-3-33-3-5~--5~--55~-5-55-5-3~--3~--33~-3-33-3-3~----------------|
E|------------------------------------------------------------------------------------------------|

"Y es transparente..."
14.
G|----------------------------------------------------------|
D|----------------------------------------------------------|
A|-0~--0~--00~-0-00-2-3~---------------5-0~--0~--00~-0-00-0-|
E|----------------------------------------------------------|

15.
G|-------------------|
D|-------------------|
A|-------------------|
E|-3~----------------|


Lyrics:


Soy la mujer con la mirada gillette
Y vos queres que te abra el alma en dos
Soy un asno pero de gran corazón
Desenfrenado

No me importa que ames a todos
Tampoco importa lo que digan de mi
Lo importante arriba de todo
Solo que me elijas a mi

Soy el hombre que espera con flores
Sin verguenza de que se rían de mi
Espiritu de luchador, un utopista, alguien que cree que todo se puede
Y aunque parece que en esta vida los malditos ganan eso está por verse

Un amor que destruya el machismo
Un amor que te deje surgir
La esperanza arriba de todo
Solo que me elijas a mi

Te amo en el fuego, dulzura de fuego
Mis besos de fuego del infierno de mi alma
Te amo en el fuego, locura de fuego
Abrazos de fuego y se encienden nuestras almas

Hoy me elegiste a mi y yo te elijo a vos
Nuestro color de amor es transparente y es para siempre
Hoy me elegiste a mi y yo te elijo a vos
El verdadero amor es el eterno y es para siempre
Es transparente, es para siempre



+++++++++++++++++++++++++++++++++
| RaiLeff                       |
+++++++++++++++++++++++++++++++++





Comments


Popular El Otro Yo tabs & chords
Alma Gemela Bass Tabs
La Ra La Bass Tabs
Locomotora Bass Tabs
Sida Bass Tabs
Vacaciones Bass Tabs
Viajero Bass Tabs
La MúSica Chords
Llevame Chords
Viajero Tabs
Amor Fuego Ukulele


Song lyrics



↑ Back to top | Tablatures and chords are parodies/interpretations of the original songs. You may use it for private study, scholarship, research or language learning purposes only
© 2014 AZChords.com Contact us | Privacy policy | DMCA | Add/correct tabs | Request tabs | Top 50 tabs