» » »

El Otro Yo, Alma Gemela Bass tabs (ver.1)

Artists:  A B C D E F G H I J K L M N O P Q R S T U V W X Y Z # 

Alma Gemela Bass tabs (ver.1)

El Otro Yo Tabs
 Rating:
4/5 (4 votes)
Alma Gemela lessons Tabs too difficult? Try these video lessons and learn fast
1
                +++++++++++++++++++++++++++
| El Otro Yo- Alma Gemela |
+++++++++++++++++++++++++++


"Elige una compañera para pasar las primaveras..."

Tuning: EADG


Intro
1.
G|-----------------------------------|
D|-----------------------------------|
A|-----------------------------------|
E|-3333333333333333-3333333333333332-|

Verse
"Cada corazón rebelde..."
2.
G|---------------------------------------------------------------------|
D|---------------------------------------------------------------------|
A|-----------------------------------3333333333333333------------------|
E|-3333333333333333-3333333333333333------------------3333333333333222-|

"Todos buscamos algo..."
3.
G|---------------------------------------------------------------------|
D|---------------------------------------------------------------------|
A|-----------------------------------3333333333333333------------------|
E|-3333333333333333-3333333333333333------------------3333333333333333-|

Pre-Chorus
"Algo nuevo vendrá..."
5.
G|-------------------------------------------------------------------------|
D|-------------------------------------------------------------------------|
A|-00000000-33333333-00000000-33333333-00000000-33333333/55555555-55555555-|
E|-------------------------------------------------------------------------|

Verse
"Encuentra tu alma gemela..."
6.
G|---------------------------------------------------------------------|
D|---------------------------------------------------------------------|
A|-----------------------------------3333333333333333------------------|
E|-3333333333333333-3333333333333333------------------3333333333333222-|

"Elije una compañera..."
7.
G|---------------------------------------------------------------------|
D|---------------------------------------------------------------------|
A|-----------------------------------3333333333333333------------------|
E|-3333333333333333-3333333333333333------------------3333333333333333-|

Pre-Chorus
"Algo nuevo vendrá..."
8.
G|-------------------------------------------------------------------------|
D|-------------------------------------------------------------------------|
A|-00000000-33333333-00000000-33333333-00000000-33333333/55555555-55555555-|
E|-------------------------------------------------------------------------|

"Suave, fresca..."
9.
G|-------------------|
D|-------------------|
A|-55555555-55555555-|
E|-------------------|

Chorus
"La alegria con vos..."
10.
G|----------------------------------------------------------------------------|
D|----------------------------------------------------------------------------|
A|-------------------33333333-33333333-00000000-33333333----------------------|--x2
E|-33333333-33333333-------------------------------------333-2333-2333-2333-2-|

Verse
"Encuentra tu alma gemela..."
11.
G|------------------------------------------------------------------------|
D|------------------------------------------------------------------------|
A|-------------------33333333-33333333-00000000-33333333------------------|--x2
E|-33333333-33333333-------------------------------------3333333-23333333-|

Pre-Chorus
"Algo bueno vendrá..."
12.
G|-------------------------------------------------------------------------|
D|-------------------------------------------------------------------------|
A|-00000000-33333333-00000000-33333333-00000000-33333333/55555555-55555555-|
E|-------------------------------------------------------------------------|

"Suave, fresca..."
13.
G|-------------------|
D|-------------------|
A|-55555555-55555555-|
E|-------------------|

Chorus
"La alegria con vos..."
14.
G|----------------------------------------------------------------------------|
D|----------------------------------------------------------------------------|
A|-------------------33333333-33333333-00000000-33333333----------------------|--x2
E|-33333333-33333333-------------------------------------333-2333-2333-2333-2-|

Bridge
15.
G|--------------------------------------------------------------------|
D|--------------------------------------------------------------------|
A|-00-22-33333333-3333-22-00---------------00-22-33333333-33-22-33-44-|
E|---------------------------33333333-3333----------------------------|

"Suave, suave, fresca..."
16.
G|-------------------------------------|
D|-------------------------------------|
A|-55555555-55555555-55555555-55555555-|
E|-------------------------------------|

Chorus
"La alegria con vos..."
17.
G|----------------------------------------------------------------------------|
D|----------------------------------------------------------------------------|
A|-------------------33333333-33333333-00000000-33333333----------------------|
E|-33333333-33333333-------------------------------------333-2333-2333-2333-2-|

"La victoria con vos..."
18.
G|-------------------------------------------------------------------------|
D|-------------------------------------------------------------------------|
A|-------------------33333333-33333333-00000000-33333333-00000000-33333333-|
E|-33333333-33333333-------------------------------------------------------|

19.
G|-----------------------------|
D|-----------------------------|
A|-00000000-33333333-----------|
E|-------------------3~--------|


Lyrics:


Cada corazón rebelde tiene una misión en este mundo,
para cambiar las cosas.
Todos buscamos algo o vivimos esperando cosas nuevas
que nunca llegan.

Algo nuevo vendrá, con una esencia nueva.
Algo nuevo vendrá y serán planes.

Encuentra tu alma gemela, alma gemela dónde estas?
es solo un devenir.
Elige una compañera para pasar las primaveras y crear cosas bellas.

Algo nuevo vendrá con un latido nuevo.
Algo nuevo vendrá y será niña, pura, suave, fresca.

La alegría con vos, la aventura con vos, 
ya no estamos tan lejos y me hace bien.
La victoria con vos, la comparto con vos,
ya no estamos tan lejos y nos hace bien.

Encuentra tu alma gemela, alma gemela dónde estas?
siempre fuiste hija de la libertad.
Yo estoy del otro lado, pero siempre estuve cerca tuyo 
y me alegra verte sonreír.

Algo bueno vendrá, con una fuerza nueva.
Algo nuevo vendrá y será niña, pura, suave, fresca.



+++++++++++++++++++++++++++++++++
| RaiLeff                       |
+++++++++++++++++++++++++++++++++
            
Submit corrections

comments powered by Disqus
↑ Back to top | El Otro Yo Bass for Alma Gemela. Lyrics for acoustic guitar and electric guitar. 1 Tablatures and chords are parodies/interpretations of the original songs. You may use it for private study, scholarship, research or language learning purposes only