>
 >
Partir

Partir Guitar Tabs

Elmariachino - Partir chords, tabs, tablatures, lyrics

Guitar lessons | Add/correct | Request | Top 50 tabs Artists:  A B C D E F G H I J K L M N O P Q R S T U V W X Y Z 0-9

Partir Guitar Tabs – Elmariachino

CD, Sheet music, Poster

Do you like Partir? Share with your friends now
ChordsTabsUkulele
Partir tabs

Intro:
--0-8-7---------------------------0------------------------|
--------10--8-8-10-10--------------------------------------|
----------------------9---7-5-4-2---2----------------------|
-----------------------------------------------------------|
-----------------------------------------------------------|
-----------------------------------------------------------|


Verse1:
--0-8-7----------------7--------------------7--------------|
--------10-8-------------10-8-----------------10-8---------|
------------------------------10-------------------10-9----|
-----------------------------------------------------------|
------------------7-8---------------7-8-10-----------------|
-------------8-10----------------10------------------------|


----------0------------------------------------------------|
-----------------------------------------------------------|
--7-5-4-2---2----------------------------------------------|
-----------------------------------------------------------|
-----------------------------------------------------------|
-----------------------------------------------------------|


Verse2:
--0-8-7------------------------8-7-------------------------|
--------10--8-8-10-10--------------10--8-8-10--------------|
----------------------9--7--------------------9------------|
---------------------------10------------------------------|
-----------------------------------------------------------|
-------------------------------------------------0---------|


-0-8-7-------------------------8-7----------------------0---|
-------10--8-8-10-10---------------10--8-8-10---------------|
---------------------97----------------------9--7-5-4-2--2-|
--------------------------10-9------------------------------|
------------------------------------------------------------|
------------------------------------------------------------|





Comments


Popular Elmariachino tabs & chords
Another Waltz Chords
Dive Chords
Girl On The Hill Chords
I Met The Lord Chords
Ode To Mari Chords
Partir Chords
Jess Tabs
I Met The Lord Ukulele
My Love Ukulele
Take Me To The Sea Ukulele


Song lyrics



↑ Back to top | Tablatures and chords are parodies/interpretations of the original songs. You may use it for private study, scholarship, research or language learning purposes only
© 2014 AZChords.com Contact us | Privacy policy | DMCA | Add/correct tabs | Request tabs | Top 50 tabs