>
 >
Your Song

Your Song Guitar Tabs

Ellie Goulding - Your Song chords, tabs, tablatures, lyrics

Guitar lessons | Add/correct | Request | Top 50 tabs Artists:  A B C D E F G H I J K L M N O P Q R S T U V W X Y Z 0-9

Your Song Guitar Tabs – Ellie Goulding

CD, Sheet music, Poster

Do you like Your Song? Share with your friends now
ChordsChords v2Chords v3Chords v4Chords v5Chords v6Chords v7Chords v8TabsTabs v2Ukulele
Your Song  Ellie Goulding


                     It's a little it funny                   this feeling
e|--------------0----0----0----0-----0----0----0----0-----0----0----0----0--|
B|--------------0----0----0----0-----3----3----3----3-----1----1----1----1--|
G|--------------0----0----0----0-----0----0----0----0-----0----0----0----0--|
D|--------------2----2----2----2-----0----0----0----0-----2----2----2----2--|
A|--------------------------------------------------------------------------|
E|--------------------------------------------------------------------------|

             inside                  I'm not one of those who can
e|----0----0----0----0-----0----0----0----0-----0----0----0----0-----0----0-----|
B|----3----3----3----3-----0----0----0----0-----3----3----3----3-----1----1-----|
G|----0----0----0----0-----0----0----0----0-----0----0----0----0-----0----0-----|
D|----0----0----0----0-----2----2----2----2-----0----0----0----0-----2----2-----|
A|------------------------------------------------------------------------------|
E|------------------------------------------------------------------------------|

      easily hide                             I don't have much money
e|----0----0-----3----3----3----3-----0----0----0----0-----0----0----0----0-----|
B|----1----1-----0----0----0----0-----0----0----0----0-----3----3----3----3-----|
G|----0----0-----0----0----0----0-----0----0----0----0-----0----0----0----0-----|
D|----2----2-----0----0----0----0-----2----2----2----2-----0----0----0----0-----|
A|------------------------------------------------------------------------------|
E|------------------------------------------------------------------------------|



(meant to be four 0,1,0,2-sorry!)
                 but boy if I did               I'd buy a big house where
e|-----0----0----0----3----3----3----3-----3----3----3----3-----------------|
B|-----1----1----1----0----0----0----0-----0----0----0----0-----1----1----1-|
G|-----0----0----0----0----0----0----0-----0----0----0----0-----2----2----2-|
D|-----2----2----2----0----0----0----0-----0----0----0----0-----2----2----2-|
A|--------------------------------------------------------------0----0----0-|
E|--------------------------------------------------------------------------|

                      we both could live
e|-------------------------------2----2----2----2-----3----3----2----2------|
B|----1-----1----1----1----1-----3----3----3----3-----3----3----3----3------|
G|----2-----0----0----0----0-----2----2----2----2-----2----2----2----2------|
D|----2-----2----2----2----2-----0----0----0----0-----0----0----0----0------|
A|----0-----3----3----3----3------------------------------------------------|
E|--------------------------------------------------------------------------|

       and you can tell    everybody                 that this is your song
e|----2----2----2----2------------------------------------------------------|
B|----3----3----3----3-----0----0----0----0-----1----1----1----1-----1----1-|
G|----2----2----2----2-----0----0----0----0-----2----2----2----2-----0----0-|
D|----0----0----0----0-----2----2----2----2-----2----2----2----2-----2----2-|
A|-------------------------2----2----2----2-----0----0----0----0-----3----3-|
E|--------------------------------------------------------------------------|


                It may be  quite simple but    now that it's    done
e|----------------2----2----2----2------------------------------------------|
B|-----1----1-----3----3----3----3-----0----0----0----0-----1----1----1-----|
G|-----0----0-----2----2----2----2-----2----2----2----2-----2----2----2-----|
D|-----2----2-----0----0----0----0-----2----2----2----2-----2----2----2-----|
A|-----3----3--------------------------0----0----0----0-----0----0----0-----|
E|--------------------------------------------------------------------------|

                              I hope you don't mind, I hope you don't mind
e|--------------------------------------------------------------------------|
B|----1---1----1----1----1----0----0----0----0-----0----0----0----0---------|
G|----2---0----0----0----0----2----2----2----2-----2----2----2----2---------|
D|----2---2----2----2----2----2----2----2----2-----2----2----2----2---------|
A|----0---3----3----3----3----0----0----0----0-----0----0----0----0---------|
E|--------------------------------------------------------------------------|

   that I put down in  words how wonderful   life is now your  in the world
e|----------------------------------------------------------------2----2----|
B|----1------------1--------3--------1-----1-----1-----1----1-----3----3----|
G|----0------------0--------0--------2-----0-----0-----0----0-----2----2----|
D|----0------------2--------0--------2-----2-----2-----2----2-----0----0----|
A|----4------------3--------2--------0-----3-----3-----3----3---------------|
E|--------------------------------------------------------------------------|

                                                                                         
                           if I was a         sculptor
e|-----2----2-----3----3-----2----2-----0----0----0----0-----0----0----0----|
B|-----3----3-----3----3-----3----3-----0----0----0----0-----3----3----3----|
G|-----2----2-----2----2-----2----2-----0----0----0----0-----0----0----0----|
D|-----0----0-----0----0-----0----0-----2----2----2----2-----0----0----0----|
A|--------------------------------------------------------------------------|
E|--------------------------------------------------------------------------|

                      But then again no               Or a girl who makes
e|----0-----0----0----0----0-----0----0----0----0-----0----0----0----0------|
B|----3-----1----1----1----1-----3----3----3----3-----0----0----0----0------|
G|----0-----0----0----0----0-----0----0----0----0-----0----0----0----0------|
D|----0-----2----2----2----2-----0----0----0----0-----2----2----2----2------|
A|--------------------------------------------------------------------------|
E|--------------------------------------------------------------------------|

      potions at a           traveling show
e|----0----0----0----0-----0----0-----0----0-----3----3----3----3-----0-----|
B|----3----3----3----3-----1----1-----1----1-----0----0----0----0-----0-----|
G|----0----0----0----0-----0----0-----0----0-----0----0----0----0-----0-----|
D|----0----0----0----0-----2----2-----2----2-----0----0----0----0-----2-----|
A|--------------------------------------------------------------------------|
E|--------------------------------------------------------------------------|

           I know it's not much but             it's the best I can do
e|----0----0----0-----0----0----0----0-----0----0----0----0----3----3-------|
B|----0----0----0-----3----3----3----3-----1----1----1----1----0----0-------|
G|----0----0----0-----0----0----0----0-----0----0----0----0----0----0-------|
D|----2----2----2-----0----0----0----0-----2----2----2----2----0----0-------|
A|--------------------------------------------------------------------------|
E|--------------------------------------------------------------------------|

                     my gift is my    song and
e|----3----3----3----3-----3----3-------------------------------------------|
B|----0----0----0----0-----0----0-----1----1----1----1----1-----------------|
G|----0----0----0----0-----0----0-----2----2----2----2----0-----------------|
D|----0----0----0----0-----0----0-----2----2----2----2----2-----------------|
A|------------------------------------0----0----0----0----3-----------------|
E|--------------------------------------------------------------------------|
            this ines for you              Ahhh              Ahhhhhhhhh
e|--------------------2----2----2----2--------------------------------------|
B|----1----1----1-----3----3----3----3----1----1-----3----3----3----3-------|
G|----0----0----0-----2----2----2----2----0----0-----0----0----0----0-------|
D|----2----2----2-----0----0----0----0----2----2-----0----0----0----0-------|
A|----3----3----3-------------------------3----3-----2----2----2----2-------|
E|--------------------------------------------------------------------------|

      Ahhh            Ahhhhhhhhh     x4
e|----2----2------------------------|
B|----3----3----0----0----0----0----|
G|----2----2----0----0----0----0----|
D|----0----0----2----2----2----2----|
A|--------------2----2----2----2----|
E|----------------------------------|

Then the chorus but instead of finishing on D finish on G.

It's a great song...Hope you like it





Comments


Popular Ellie Goulding tabs & chords
Burn Chords
Every Time You Go 3 Chords
Lights 5 Chords
Starry Eyed 9 Chords
The Writer 1 Chords
Under The Sheets 1 Chords
Under The Sheets 3 Chords
Your Biggest Mistake Chords
Hanging On Tabs
Your Biggest Mistakes Ukulele


Song lyrics



↑ Back to top | Tablatures and chords are parodies/interpretations of the original songs. You may use it for private study, scholarship, research or language learning purposes only
© 2014 AZChords.com Contact us | Privacy policy | DMCA | Add/correct tabs | Request tabs | Top 50 tabs