>
 >
Guns And Horses

Guns And Horses Guitar Tabs

Ellie Goulding - Guns And Horses chords, tabs, tablatures, lyrics

Guitar lessons | Add/correct | Request | Top 50 tabs Artists:  A B C D E F G H I J K L M N O P Q R S T U V W X Y Z 0-9

Guns And Horses Guitar Tabs – Ellie Goulding

CD, Sheet music, Poster

Do you like Guns And Horses? Share with your friends now
Tabs
---------------------------------------------------------------------------                 
---------------------------------------------------------------------------


Tuning: Standard EBGDAE

This is the acoustic version of Ellie Goulding's 'Guns And Horses'.
I tabbed this from a live acoustic performance she did on Dutch national radio. 
The video of this performance is to be found here:

Intro

Fingerplucking:

E|------------------------------|
B|---8--8-----8-----------------| 
G|------------------0--0-----0--| (x2)
D|---10-10----10----------------|
A|-0--------0-------10-10----10-| 
E|----------------0--------0----| 

Verse

"You're so quiet.."
E|-0----0--|
B|-8----8--| 
G|-9----0--| (x4)
D|-10---9--| 
A|-0----10-| 
E|------0--| 

Then a very short pause, followed by again:

"..And let's join forces.."
E|-0----0--|
B|-8----8--| 
G|-9----0--| (x4)
D|-10---9--| 
A|-0----10-| 
E|------0--| 

Pre chorus

"..I left my house,.."
E|-0---3---0-| 
B|-1---0---0-| 
G|-0---0---0-| (x2)
D|-2---0---0-| 
A|-3---2---4-| 
E|-----3---5-| 

E|-----------| 
B|-----------|
G|-----------|
D|-----------|
A|-----------|
E|-0-0-0-0-0-|

Chorus
"(But I wish I could) 
feel it all for you.."
E|-0--0---0---0-------| 
B|-0--0---0---0-------| 
G|-9--0---11--12(p11)-| (x3)
D|-9--12--12--12------|
A|-7--12--10--10------| 
E|-8--10--0---10------| 

E|-0--10--0--| 
B|-0--10--0--| 
G|-9--12--11-| 
D|-9--12--12-|
A|-7--10--10-| 
E|-8--10--0--| 

E|-0---0---0---0--|
B|-8---8---8---8--| 
G|-9---0---9---0--| 
D|-10--9---10--9--| 
A|-0---10--0---10-| 
E|-----0-------0--| 

Verse

E|-0----0--|
B|-8----8--| 
G|-9----0--| (x4)
D|-10---9--| 
A|-0----10-| 
E|------0--| 

Then a very short pause, followed by again:

"But you - found me"
E|-0----0--|
B|-8----8--| 
G|-9----0--| (x2)
D|-10---9--| 
A|-0----10-| 
E|------0--| 

Pre Chorus

"I left my house.."
E|-0---3---0-| 
B|-1---0---0-| 
G|-0---0---0-| (x2)
D|-2---0---0-| 
A|-3---2---4-| 
E|-----3---5-| 

E|-----------| 
B|-----------|
G|-----------|
D|-----------|
A|-----------|
E|-0-0-0-0-0-|

Chorus

"(But I wish I could)
feel it al for you"
E|-0--0---0---0-------| 
B|-0--0---0---0-------| 
G|-9--0---11--12(p11)-| (x3)
D|-9--12--12--12------|
A|-7--12--10--10------| 
E|-8--10--0---10------| 

E|-0--10--0--| 
B|-0--10--0--| 
G|-9--12--11-| 
D|-9--12--12-|
A|-7--10--10-| 
E|-8--10--0--| 

Then, straight into the
Bridge

"It's time to come clean.."
E--0---0---0-| 
B--1---3---1-| 
G--0---0---2-| (x2)
D--2---4---2-| 
A--3---5---0-|
E------------|

(from here on, she holds each chord for one count, 
so she's not strumming like she was. 
I put down the amount of downstrokes for each chord.)

E--0-------0-------0------| 
B--1-------3-------1------| 
G--0-(x4)--0-(x4)--2-(x8)-| 
D--2-------4-------2------| 
A--3-------5-------0------|
E-------------------------|

"(I see your face in every)
star"

E--0-------0-------0-| 
B--1-------3-------0-| 
G--0-(x4)--0-(x4)--0-| 
D--2-------4-------2-| 
A--3-------5-------0-|
E------------------0-|

(on the last chord (e minor), the single downstrokes end, 
and she starts strumming again)

Chorus

"(But I wish i could)
feel it all for you"
E|-0--0---0---0-------| 
B|-0--0---0---0-------| 
G|-9--0---11--12(p11)-| (x3)
D|-9--12--12--12------|
A|-7--12--10--10------| 
E|-8--10--0---10------| 

E|-0--10--0--| 
B|-0--10--0--| 
G|-9--12--11-| 
D|-9--12--12-|
A|-7--10--10-| 
E|-8--10--0--| 

"I'd do it all for you"
"whoa-o"
E|-0--0---0---0-------| 
B|-0--0---0---0-------| 
G|-9--0---11--12(p11)-| (x4)
D|-9--12--12--12------|
A|-7--12--10--10------| 
E|-8--10--0---10------|

"whoa-o, whoa-o"
E|-0--0---0---0-------| 
B|-0--0---0---0-------| 
G|-9--0---11--12(p11)-| (x4)
D|-9--12--12--12------|
A|-7--12--10--10------| 
E|-8--10--0---10------|

Ellie plays the same chords in this last part, 
but she picks the notes of each chord separately,
just listen to this acoustic version and you'll know what I mean by that. 
Same chords, and picking pattern should be easy enough to figure out by yourself.

Legenda:
| p      pull-off 

hope this helped!
rate/comment!





Comments


Popular Ellie Goulding tabs & chords
Animal Chords
Believe Me Chords
Burn 1 Chords
Every Time You Go 1 Chords
Starry Eyed 1 Chords
Under The Sheets 1 Chords
Your Song 6 Chords
Your Song 1 Tabs
Lights Ukulele
The End Ukulele


Song lyrics



↑ Back to top | Tablatures and chords are parodies/interpretations of the original songs. You may use it for private study, scholarship, research or language learning purposes only
© 2014 AZChords.com Contact us | Privacy policy | DMCA | Add/correct tabs | Request tabs | Top 50 tabs