» » »

Eliza Doolittle, Baby Tabs (ver.1)

Artists:  A B C D E F G H I J K L M N O P Q R S T U V W X Y Z # 

Baby Tabs (ver.1)

Eliza Doolittle Tabs
Rating:
5/5 (1 vote)
Baby lessons Tabs too difficult? Try these video lessons and learn fast
                For Lillian,

Intro
|-3h4p3---------------|
|-------6-4-3-------4-|
|-------------5-4---4-|
|-----------------5-3-|
|---------------------|
|-------------------3-|

Verse
|-------------------------------------------| x2
|--4-4-4-4--8-8-8-8---9-9-9-9----8--8--8--8-|
|--5-5-5-5--7-7-7-7---8-8-8-8---10-10-10-10-|
|--5-5-5-5--8-8-8-8---6-6-6-6----9--9--9--9-|
|-3---3----6---6-----8---8-----10----10-----|
|---3---3----6---6-----8---8------10----10--|

Chorus
|-----------------11-11------4-4----------| x2
|--8-8-8-8---8--8--8--8--4-4-4-4--6-6-9-9-|
|--7-7-7-7---8--8--8--8--5-5-5-5--7-7-7-7-|
|--8-8-8-8---8--8--------6-6------8-8-8-8-|
|-6-6-6-6--10-10-10-10--------------------|
|-----------8--8--8--8--4-4-4-4--6-6-6-6--|

Verse 
|-------------------------------------------| x1
|--4-4-4-4--8-8-8-8---9-9-9-9----8--8--8--8-|
|--5-5-5-5--7-7-7-7---8-8-8-8---10-10-10-10-|
|--5-5-5-5--8-8-8-8---6-6-6-6----9--9--9--9-|
|-3---3----6---6-----8---8-----10----10-----|
|---3---3----6---6-----8---8------10----10--| \\

|--------------------4---------6------------| //
|--4-4-4-4--8-8-8-8--4---------6------------|
|--5-5-5-5--7-7-7-7--4---------7------------|
|--5-5-5-5--8-8-8-8--6---------8------------|
|-3---3----6---6-----6---------8------------|
|---3---3----6---6---4---------6------------|


Chorus
|-----------------11-11------4-4----------| x4
|--8-8-8-8---8--8--8--8--4-4-4-4--6-6-9-9-|
|--7-7-7-7---8--8--8--8--5-5-5-5--7-7-7-7-|
|--8-8-8-8---8--8--------6-6------8-8-8-8-|
|-6-6-6-6--10-10-10-10--------------------|
|-----------8--8--8--8--4-4-4-4--6-6-6-6--|

Outro
|6--|
|8--|
|7--|
|8--|
|6--|
|6--|
            
Submit corrections

comments powered by Disqus
↑ Back to top | Eliza Doolittle Tabs for Baby. Lyrics for acoustic guitar and electric guitar. Tablatures and chords are parodies/interpretations of the original songs. You may use it for private study, scholarship, research or language learning purposes only