» » »

Eli Young Band, When It Rains2 Bass tabs (ver.1)

Artists:  A B C D E F G H I J K L M N O P Q R S T U V W X Y Z # 

When It Rains2 Bass tabs (ver.1)

Eli Young Band Tabs
Rating:
0/5 (0 votes)
When It Rains2 lessons Tabs too difficult? Try these video lessons and learn fast
                Eli Young Band

Satndard tuning (EADG)

Verse

g------------------------------|
d-------------------02---------|  x7
a-------53---50----------2-----|
e--5---3-------3---2------35---|


Chorus
g---------------------------    g-------------------|
d------5-3---5-------------- x3 d------3333---------|
a--5----3-----53---50----305    a--5555----3333-----|
e--------------------3------    e--------------3333-|

Verse

g------------------------------|
d-------------------02---------|  x5
a-------53---50----------2-----|
e--5---3-------3---2------35---|

Chorus

g---------------------------    g-------------------|
d------5-3---5-------------- x3 d------3333---------|
a--5----3-----53---50----305    a--5555----3333-----|
e--------------------3------    e--------------3333-|

guitar solo (play verse)

g------------------------------|
d-------------------02---------|  x2
a-------53---50----------2-----|
e--5---3-------3---2------35---|

Chorus

g---------------------------    g-------------------|
d------5-3---5-------------- x5 d------3333---------|
a--5----3-----53---50----305    a--5555----3333-----|
e--------------------3------    e--------------3333-|

pause then verse x3

If you have any problems or modifications leave me a message and i will check it out.
            
Submit corrections

comments powered by Disqus
↑ Back to top | Eli Young Band Bass for When It Rains2. Lyrics for acoustic guitar and electric guitar. Tablatures and chords are parodies/interpretations of the original songs. You may use it for private study, scholarship, research or language learning purposes only