» » »

Eli Young Band, Small Town Kid Tabs (ver.1)

Artists:  A B C D E F G H I J K L M N O P Q R S T U V W X Y Z # 

Small Town Kid Tabs (ver.1)

Eli Young Band Tabs
Rating:
5/5 (2 votes)
Small Town Kid lessons Tabs too difficult? Try these video lessons and learn fast
                Intro:  X2
|-----------------------------------------------------|
|---------------------------3-------------------------|
|----0------0------0------0--------0------0------0----|
|------0------0------0---------------0------0------0--|
|-10------9------7------3------10------9------7-------|
|-----------------------------------------------------|

Verse:  X3 (Just listen to the song for strum pattern)
|-3-3--2-2-2-2----------------3-3--2-2-2-2-----------------|
|-3-3--3-3-3-3-------1-1-1-1--3-3--3-3-3-3--1-1-1-1-1-1-1--|
|-0-0--2-2-2-2-------0-0-0-0--0-0--2-2-2-2--0-0-0-0-0-0-0--|
|-0-0-----------2-2--2-2-2-2--0-0-----------2-2-2-2-2-2-2--|
|-2-2-----------2-2--3-3-3-3--2-2-----------3-3-3-3-3-3-3--|
|-3-3-------------------------3-3--------------------------|

Chorus:  X3
|-3-3--2-2------------|
|-3-3--3-3-------1-1--|
|-0-0--2-2-------0-0--|
|-0-0-------2-2--2-2--|
|-2-2-------2-2--3-3--|
|-3-3-----------------|

Then This X2
|-3-3--2-2--3-2---2--|
|-3-3--3-3--3-3-1-3--|
|-0-0--2-2--0-2-0-2--|
|-0-0-------0---2----|
|-2-2-------2---3----|
|-3-3-------3--------|

Bridge:
|-3-3-3-3-3-3-3-3--2--|
|-3-3-3-3-3-3-3-3--3--|
|-0-0-0-0-0-0-0-0--2--|
|-0-0-0-0-0-0-0-0-----|
|-2-2-2-2-2-2-2-2-----|
|-3-3-3-3-3-3-3-3-----|

|-3--2--3--2----------------------|
|-3--3--3--3--1--1-1-1-1-1-1-1-1--|
|-0--2--0--2--0--0-0-0-0-0-0-0-0--|
|-0-----0-----2--2-2-2-2-2-2-2-2--|
|-2-----2-----3--3-3-3-3-3-3-3-3--|
|-3-----3-------------------------|

|-3--2-2-----------3--2-2-------------------|
|-3--3-3------1-1--3--3-3--1-1-1-1-1-1-1-1--|
|-0--2-2------0-0--0--2-2--0-0-0-0-0-0-0-0--|
|-0--------2--2-2--0-------2-2-2-2-2-2-2-2--|
|-2--------2--3-3--2-------3-3-3-3-3-3-3-3--|
|-3----------------3------------------------|
            
Submit corrections

comments powered by Disqus
↑ Back to top | Eli Young Band Tabs for Small Town Kid. Lyrics for acoustic guitar and electric guitar. Tablatures and chords are parodies/interpretations of the original songs. You may use it for private study, scholarship, research or language learning purposes only