» » »

Oklahoma Girl Tabs (ver.1)

Artists:  A B C D E F G H I J K L M N O P Q R S T U V W X Y Z # 

Oklahoma Girl Tabs (ver.1)

Eli Young Band
Rating:
5/5 (2 votes)
Tabs too difficult? Try these video lessons and learn fast.
                oklahoma girl                                                                            
dan4bez
eli young band
Intro
---------------------------------------------------|
------5--------------------------------------------|
--2/4----------2b(4)---r-p0h2p0--------------------|
--------------------------------2~-0--2------------|
---------------------------------------------------|
---------------------------------------------------|

----------------------------------------------------|
----------------------------------------------------|
----------------------------------------------------|
--2--4--5--7--4----0--2----2--4--5--7--4---0--2-2---|
----------------------------------------------------|
----------------------------------------------------|


Verse 1:
2 times
-------------------------------------------|
-------5-----------------------------------|
--2/4--------------------------------------|
-------------------------------------------|
-------------------------------------------|
-------------------------------------------|

Play this the third time
-------------------------------------------|
-------5--3--------------------------------|
--2/4--------------------------------------|
--------------2--2--2--2--2----------------|
--------------2--2--2--2--2----------------|
--------------0--0--0--0--0----------------|

Chorus:
chords em c g d

Verse 2:
em c g d

Chorus:
em c g d

Solo:
E-------------------------------------------------------|
B-------------------------------------------------------|
G--12p11h12p11----12p11h12p11----12p11----12/14---------|
D--------------12-------------12-------12---------------|
A-------------------------------------------------------|
E-------------------------------------------------------|

E-------------------------------------------------------|
B--15----------15-------15------------------------------|
G--14b(16)r14--14b(16)--14(16)r14p12----12--------------|
D------------------------------------14-----------------|
A-------------------------------------------------------|
E-------------------------------------------------------|

E-------------------------------------------------------|
B-------------------------------------------------------|
G--11h12p11--------11h12p11--------12p11----12/14-------|
D-----------12--12----------12--12-------12-------------|
A-------------------------------------------------------|
E-------------------------------------------------------|

E-------------------------------------------------------|
B--15----------15-------15------------------------------|
G--14b(16)r14--14b(16)--14(16)r14p12----12--------------|
D------------------------------------14-----------------|
A-------------------------------------------------------|
E-------------------------------------------------------|

E--12~(8X)--14~(4x)--15~-------0------------------------|
B------------------------------0------------------------|
G------------------------------0------------------------|
D------------------------------2------------------------|
A------------------------------2------------------------|
E------------------------------0------------------------|

Solo:
E-------------------------------------------------------|
B-------------------------------------------------------|
G--12p11h12p11----12p11h12p11----12p11----12/14---------|
D--------------12-------------12-------12---------------|
A-------------------------------------------------------|
E-------------------------------------------------------|

E-------------------------------------------------------|
B--15----------15-------15------------------------------|
G--14b(16)r14--14b(16)--14(16)r14p12----12--------------|
D------------------------------------14-----------------|
A-------------------------------------------------------|
E-------------------------------------------------------|

E-------------------------------------------------------|
B-------------------------------------------------------|
G--11h12p11--------11h12p11--------12p11----12/14-------|
D-----------12--12----------12--12-------12-------------|
A-------------------------------------------------------|
E-------------------------------------------------------|

E-------------------------------------------------------|
B--15----------15-------15------------------------------|
G--14b(16)r14--14b(16)--14(16)r14p12----12--------------|
D------------------------------------14-----------------|
A-------------------------------------------------------|
E-------------------------------------------------------|

E-----------12----------12---------12----------12---------12--|
B--15b(17)~----15b(17)~----15b(17)----15b(17)------15b(17)----|
G-------------------------------------------------------------|
D-------------------------------------------------------------|
A-------------------------------------------------------------|
E-------------------------------------------------------------|

E-------------------------------------------------------------|
B-----------------------------------[12]*---------------------|
G--14b(16)r14p12----12---14--12--14-------14--12--------------|
D----------------14-------------------------------------------|
A-------------------------------------------------------------|
E-------------------------------------------------------------|
[12]*=Harmonic

E-----------12-----------12--------------|
B--15b(17)~-----15b(17)~----15b(17)~-----|
G----------------------------------------|
D----------------------------------------|
A----------------------------------------|
E----------------------------------------|

E--15--14--12-----------------------------------------------------------|
B--------------15b(17)r15p12-----12-------------------------12--12------|
G-----------------------------15----15p14p12h14-12----------12--12------|
D--------------------------------------------------14\12/14--------14\--|
A-----------------------------------------------------------------------|
E-----------------------------------------------------------------------|

E------------------------------------------------------|
B---------------------------------------------5--------|
G--2p0h2p0----2p0h2p0----2p0---0--------0h2/4----------|
D----------2-----------2-----2---2p0--2----------------|
A------------------------------------------------------|
E------------------------------------------------------|

E------------------------------------------------------------------|
B--3/5--5--5--5\3--3--3--3/5--5--5--5\3--3--3--3/8--8--8--8/10-----|
G--2/4--4--4--4\2--2--2--2/4--4--4--4\2--2--2--2/7--7--7--7/9------|
D------------------------------------------------------------------|
A------------------------------------------------------------------|
E------------------------------------------------------------------|
            
Tabs too difficult? Try these video lessons and learn fast.


comments powered by Disqus
↑ Back to top | Tablatures and chords are parodies/interpretations of the original songs. You may use it for private study, scholarship, research or language learning purposes only