» » »

Eli Young Band, Guinevere Tabs (ver.3)

Artists:  A B C D E F G H I J K L M N O P Q R S T U V W X Y Z # 

Guinevere Tabs (ver.3)

Eli Young Band Tabs
 Rating:
4/5 (4 votes)
Guinevere lessons Tabs too difficult? Try these video lessons and learn fast
1
                Tuning: Standard

This tab should be pretty close to the album version of the song. You can either play
the riffs for the intro/verse 1 as i've tabbed out below or play the chords which i've
also put above the lyrics. The two G chords with the asterisk (*) are only played if you 
are not playing the tabbed riff.

(Chords in Parenthesis are the base chords for each riff, the 'base' chords are shown below):

Chords:
 C    G    Am   F
------3----0----0--|
-1----1----1----1--|
-0----0----2----2--|
-2----0----2----3--|
-3----2----0-------|
------3------------|



Intro/Verse 1:  (through 'needs to land')
  (C)                 (G)                    (Am)
-----------------------3-----------------------------------|
--------1----------1---1h3--------------------1----1-------|
-0--------0------------0---0------------0-----0h2----2-0---|
---0h2------0--0h2-----0---0h2-0-----2--------2--------2---|
---3--------3--3------------------------------0------------|
-----------------------------------------------------------|

  (Am cont)   (F)
--------------------------0-------------------------------|
---1----1-----------1-----1-------------------------------|
---0h2----2----0h2----2---2-------------------------------|
---2-----------3----------3-------------------------------|
---0----------------------0-------------------------------|
----------------------------------------------------------|


Next part of verse 1:  ('She's a saturday night...' --to--...including me.')
 (Am)                  (F)            (G)
----------------------------------0----3------------------|
-----1--------0-1-0---------1-----1----1h3----------------|
--2----2----0-------0-----2---2---2----0---0--------------|
--2------2--------------3---------3----0---0h2-0----------|
--0-------------------------------------------------------|
---------------------------------------3------------------|


            C
She's got a bumper like a billboard
                             G
Covered in stickers of her favorite band
            Am
She's got a handful of records that she turns to
          F
When she needs to land
        Am                 G* (play this if not picking riff above for Verse)
She's a saturday night parade through the streets
     F                              G
That all eyes some to see including me


(Drums enter; Repeat First Riff above--Same as first part of the verse)


            C                                          G
She carries memories around like souvenirs down in her pockets
                Am                                   F
She should have let some go by now but can't seem to drop it
     Am                              G* (same as G* above)
Says forgiveness ain't nothing but a lifeless tire on the
  F
shoulder of her soul
           G
That never rolls


Chours:
       Am           F               C
For as much as she stumbled she's runnin'
       Am           F                C
For as much as she runs she's still here
       Am         G               F            C
Always hoping to find something quicker than heaven

             C               C      G
To make the damage of her days disappear
  F        G  Am  F   C
Just like Guinevere



          C                           G
She don't hold onto nothin' new for very long
         Am
Yeah she writes you in as just one more tale
       F
and then you're gone
           Am                         G
'Cause she once fell hard 'cause she dropped her guard
    F                                 G
And no one gets to stay it's just too late


(Repeat Chorus)

Am        F       C
Just like Guinevere


        Am            F              C
For as much as she's stumbled she's runnin'

        Am          F                C
For as much as she runs she's still here



(Repeat Chorus)

   Am        F       C
Oh Just like Guinevere

(instrumental)
            
Submit corrections

comments powered by Disqus
↑ Back to top | Eli Young Band Tabs for Guinevere. Lyrics for acoustic guitar and electric guitar. 1 Tablatures and chords are parodies/interpretations of the original songs. You may use it for private study, scholarship, research or language learning purposes only