» » »

Eli Young Band, Guinevere Bass tabs (ver.1)

Artists:  A B C D E F G H I J K L M N O P Q R S T U V W X Y Z # 

Guinevere Bass tabs (ver.1)

Eli Young Band Tabs
 Rating:
4/5 (4 votes)
Guinevere lessons Tabs too difficult? Try these video lessons and learn fast
                                  Guinivere by Eli Young Band
Standard tuning
(No bass in intro)
                     First Verse (softly)
G-------------------------------------------------------------------------|
D-------------------------------------------------------------------------|
A-------------3-----------------------------------------------------------|
E-------------------------------------------------------------------3-----|
  She's got a bumper like a billboard covered in stickers of her favorite

G-------------------------------------------------------------------------|
D-------------------------------------------------------------------------|
A------------------12-----------------------------------------------------|
E-----------------------------------------------------------------1-------|
  band. She's got a handful of records that she turns to when she needs to

G-------------------------------------------------------------------------|
D-------------------------------------------------------------------------|
A---------------0---------------------------------------------------------|
E------------------------------3------------------------------1-----------|
  land. She's a saturday night parade though the streets that all eyes come

G--------------------------------------------------------------------------|
D--------------------------------------------------------------------------|
A-----------------------------------3--------------------------------------|
E--------------------3-----------------------------------------------------|
  to see, including me. She carries memories around like souvenire down in

G--------------------------------------------------------------------------|
D--------------------------------------------------------------------------|
A------------------------------12------------------------------------------|
E-----3------------------------------------------------------------------1-|
  her pockets. She should have let some go by now but can't seem to drop it.

G--------------------------------------------------------------------------|
D--------------------------------------------------------------------------|
A-----------------0--------------------8--------------------3--------------|
E--------------------------------------------------------------------------|
  Says forgiveness ain't nothing but a lifeless tire on the shoulder of her
G--------------------------------------------------------------------------|
D--------------------------------------------------------------------------|
A--------------------------------------------------------------------------|
E-----------------3--------------------------------------------------------|
  soul that never rolls
                           Chorus

G--------------------------------------------------------------------------|
D--------------------------------------------------------------------------|
A--------12-12-12-12---------------3-3-3-3-3-3-3-3--0---0---0---0----------|
E--------------------1---1---1---1----------------------------------1---1--|
  For as much as she stumbled she's running, for as much as she runs she's

G--------------------------------------------------------------------------|
D--------------------------------------------------------------------------|
A----------------------------------0--0--0--0------------------3--3--3--3--|
E-1---1----3-3-3-3-3-3-3-3-------------------3----3----3----3--------------|
  still here.                Always hoping to find something quicker than

G--------------------------------------------------------------------------|
D--------------------------------------------------------------------------|
A-------------------0---0---0---0-3-3-3-3------------------8-8-8-8-3-3-3-3-|
E-3----3----3----3--------------------------3-3-3-3-3-3-3-3----------------|
  heaven to make the damage of her days dissapear just like Guinavere

                            Second Verse
G----------------------------------------------------------------------------|
D----------------------------------------------------------------------------|
A-3-3-3-3-3-3-3-3-3-3-3-3-3-3-3-3-3-3-3-3-3-3-3-3-3-3-3-3-3------------------|
E----------------------------------------------------------3---3---3---3---3-|
                          She don't hold to nothing new  for very long

G---------------------------------------------------------------------------|
D---------------------------------------------------------------------------|
A--------------0----0----0----0----0----0----0----0-------------------------|
E---3---3---3--------------------------------------1----1----1----1----1----|
  Yeah she just writes you off as one more tale and then you're gone.

G--------------------------------------------------------------------------|
D--------------------------------------------------------------------------|
A---------12------12------12------12-------------------------8---8---8---8-|
E-1---1--1-----------------------------1------1------1-----1---------------|
  'Cause she once fell hard 'cause she dropped her guard and no one gets to

G--------------------------------------------------------------------------|
D--------------------------------------------------------------------------|
A--------------------------------------------------------------------------|
E-8--8--8--8--3-3-3-3-3-3-3-3----------------------------------------------|
  stay. It's just to late
                             back to chorus

G--------------------------------------------------------------------------|
D--------------------------------------------------------------------------|
A--------12-----------------------3----3----3----3--0----------------------|
E--------------------1----------------------------------------------1------|
  For as much as she stumbled she's running, for as much as she runs she's

G--------------------------------------------------------------------------|
D--------------------------------------------------------------------------|
A-------3--3--3--3---------------------------------------------------------|
E--------------------------------------------------------------------------|
  still here   (back to chorus)
G--------------------------------------------------------------------------|
D--------------------------------------------------------------------------|
A-----------------8-8-8-8-3-3-3-3-3-3-3-3-3-3-3-3-3-3-3-3-3-3-3-3-3-3-3-3--|
E-3-3-3-3-3-3-3-3----------------------------------------------------------|
  Ohh just like Guinivere
            
Submit corrections

comments powered by Disqus
↑ Back to top | Eli Young Band Bass for Guinevere. Lyrics for acoustic guitar and electric guitar. Tablatures and chords are parodies/interpretations of the original songs. You may use it for private study, scholarship, research or language learning purposes only