» » »

Odds And Evens Tabs (ver.1)

Artists:  A B C D E F G H I J K L M N O P Q R S T U V W X Y Z # 

Odds And Evens Tabs (ver.1)

Eleventyseven
Rating:
0/5 (0 votes)

Hard to play? Try these video lessons and learn fast.
                AGE:14

I know there are some mistakes here so please correct it.hehehe!!hope you like it.its my 

please add me in friendster and in multiply.

Intro:2x

e|--------------------------------------------------------------------|
B|--------------------------------------------------------------------|
G|-77777-7-7-7h9-7--------11-9-7-6h7-7-------11-9-7-6h7-7-------------|
D|-77777------------77777--------------99999--------------55555-77777-|
A|-55555------------77777--------------99999--------------55555-77777-|
E|------------------55555--------------77777--------------33333-55555-|

Verse:

e|-----------------------------------|
B|-77777-----------------------------|
G|-77777--55555--99999--55555--77777-|
D|-55555--55555--99999--55555--77777-|
E|--------33333--77777--33333--55555-|

e|--------------------------------------|
B|-77777--------------------------------|
G|-77777--55555--99999--55555--77777777-|
D|-55555--55555--99999--55555--77777777-|
E|--------33333--77777--33333--55555555-|
                             |DOWN STRUM|

Chorus:
e|-------------------------|
B|-------------------------|
G|-77777777777777777777777-|
D|-77777777777777777777777-|
A|-55555555555555555555555-|
E|-------------------------|
She's crying for direction

e|------------------------|
B|------------------------|
G|------------------------|
D|-7777777777777777777777-|
A|-7777777777777777777777-|
E|-5555555555555555555555-|
   lost in her reflection

e|--------------------------------------|
B|--------------------------------------|
G|--------------------------------------|
D|-999999999999999999999999999999999999-|
A|-999999999999999999999999999999999999-|
E|-777777777777777777777777777777777777-|
   all the while pretending she's alive

e|---------------|
B|---------------|
G|---------------|
D|-555555-777777-|
A|-555555-777777-|
E|-333333-555555-|


e|-----------------------------|
B|-----------------------------|
G|-777777777777777777777777777-|
D|-777777777777777777777777777-|
A|-555555555555555555555555555-|
E|-----------------------------|
   she's trying not to show it


e|------------------------|
B|------------------------|
G|------------------------|
D|-7777777777777777777777-|
A|-7777777777777777777777-|
E|-5555555555555555555555-|
   but everybody knows it

e|------------------------------------------|
B|------------------------------------------|
G|------------------------------------------|
D|-9999999999999999999999999999999999999999-|
A|-9999999999999999999999999999999999999999-|
E|-7777777777777777777777777777777777777777-|
   but something is just killing her inside

e|-------|
B|-------|
G|-------|
D|-5~-7~-|
A|-5~-7~-|
E|-3~-5~-|


Repeat Verse

Repeat Chorus


e|-------------------------------------------|
B|-8-8-8-8---10-10-10-10---7-7-7-7-----------|
G|--7-7-7-7----7--7--7--7---7-7-7-7--66-77-6-|  <----4x
D|-----------------------------------66-77-6-|
A|-----------------------------------44-55-4-|
E|-------------------------------------------|

Maybe someday soon when she's alone
she'll decide to take a life that's not her own
lying on the ground beside her gun

e|-----------------------------------------------|
B|-8-8-8-8---10-10-10-10---7-7-7-7---------------|
G|--7-7-7-7----7--7--7--7---7-7-7-7---777777777--|
D|------------------------------------777777777--|
A|------------------------------------555555555--|
E|-----------------------------------------------|
never knowing she's not the only one

Repeat verse chords for this one:

all she ever needed was a voice
telling her that she could make a different choice
now is not the time cause it's too late
what good is god doing you when he
is only faith?

Repeat Chorus


ends with D

thanks a lot.Im not sure in some parts of this song but it sounds good.well, if ever 
are some errors,correctons,etc. just email it to me.
            
Hard to play? Try these video lessons and learn fast. | Correct




comments powered by Disqus
↑ Back to top | Tablatures and chords are parodies/interpretations of the original songs. You may use it for private study, scholarship, research or language learning purposes only