>
 >
Nostalgiatopia

Nostalgiatopia Guitar Tabs

Eleventyseven - Nostalgiatopia chords, tabs, tablatures, lyrics

Guitar lessons | Add/correct | Request | Top 50 tabs Artists:  A B C D E F G H I J K L M N O P Q R S T U V W X Y Z 0-9

Nostalgiatopia Guitar Tabs – Eleventyseven

CD, Sheet music, Poster

Do you like Nostalgiatopia? Share with your friends now
ChordsTabsUkulele
----------------------------------------------------------------------------
----------------------------------------------------------------------------

Chords:


   G  G5  A   A5  Bm  B5  D   D5
e[-5------7-------7-------5------]
B[-5------7-------7-------7------]
G[-4------6-------7-------7---7--]
D[-5--5---7---7---9---9---7---7--]
A[-5--5---7---7---9---9---5---5--]
E[-3--3---5---5---7---7----------]

INTRO 1: guitar 1 only, plucking...

      (D)                       (Bm)
e[----5-----5-----5-------5----------7---7---7-----7---]
B[------7----7-----7-------7----------7---7---------7--]
G[---7---------7----7-------7-----7--------7---7-----7-]
D[-7------7-----------7---------9------9--------9------]
A[-----------------------------------------------------]
E[-----------------------------------------------------]

   (G)                        (D)
e[-----5-----5----5-------5-------------------5~---]
B[-------5-----5----5------5------5----5------7~---]
G[---4----------4-----4-----4-------7----7----7~---]
D[-5-------5------------5-------7----------7--7~---]
A[----------------------------7------7--------5~---]
E[-------------------------------------------------]

INTRO 2: Both guitars

Guitar 1: Same as Intro one basically, plays it lightly over guitar 2's part

Guitar 2: power chords, strum

e[------------------------------------------------------------------]
B[------------------------------------------------------------------]
G[-7-7-7-7-7-7-7-7-7-7-7-7-7-7-7-7----------------------------------]
D[-7-7-7-7-7-7-7-7-7-7-7-7-7-7-7-7--9-9-9-9-9-9-9-9-9-9-9-9-9-9-9-9-]
A[-5-5-5-5-5-5-5-5-5-5-5-5-5-5-5-5--9-9-9-9-9-9-9-9-9-9-9-9-9-9-9-9-]
E[----------------------------------7-7-7-7-7-7-7-7-7-7-7-7-7-7-7-7-]

e[------------------------------------------------------------------]
B[------------------------------------------------------------------]
G[----------------------------------7-7-7-7-7-7-7-7-7-7-7-7-7-7-7-7-]
D[-5-5-5-5-5-5-5-5-5-5-5-5-5-5-5-5--7-7-7-7-7-7-7-7-7-7-7-7-7-7-7-7-]
A[-5-5-5-5-5-5-5-5-5-5-5-5-5-5-5-5--5-5-5-5-5-5-5-5-5-5-5-5-5-5-5-5-]
E[-3-3-3-3-3-3-3-3-3-3-3-3-3-3-3-3----------------------------------]

VERSE 1: "We can take this road..."

Guitar 2 - pm, play 2X

e[------------------------------------------------------------------]
B[------------------------------------------------------------------]
G[-7-7x--7-7-7x--7-7-7x--7-7-7x--7----------------------------------]
D[-7-7x--7-7-7x--7-7-7x--7-7-7x--7--9-9x--9-9-9x--9-9-9x--9-9-9x--9-]
A[-5-5x--5-5-5x--5-5-5x--5-5-5x--5--9-9x--9-9-9x--9-9-9x--9-9-9x--9-]
E[----------------------------------7-7x--7-7-7x--7-7-7x--7-7-7x--7-]
  pm .....................pm...................pm....................

e[------------------------------------------------------------------]
B[------------------------------------------------------------------]
G[----------------------------------7-7x--7-7-7x--7-7-7x--7-7-7x----]
D[-5-5x--5-5-5x--5-5-5x--5-5-5x--5--7-7x--7-7-7x--7-7-7x--7-7-7x----]
A[-5-5x--5-5-5x--5-5-5x--5-5-5x--5--5-5x--5-5-5x--5-5-5x--5-5-5x----]
E[-3-3x--3-3-3x--3-3-3x--3-3-3x--3----------------------------------]
  pm ......................pm.......................pm...............

Guitar 1 - plays the same riff as it does in the intro, comes in on the   second time of 
2's part

CHORUS: strumming, both guitar parts are the same
"cause I don't ever wanna slow this down..."

e[-------------------------------------------------------------------]
B[-------------------------------------------------------------------]
G[-----------------------------------7-7-7-7-7-7-7-7-7-7-7-7-7-7-7-7-]
D[-9-9-9-9-9-9-9-9--5-5-5-5-5-5-5-5--7-7-7-7-7-7-7-7-7-7-7-7-7-7-7-7-]
A[-9-9-9-9-9-9-9-9--5-5-5-5-5-5-5-5--5-5-5-5-5-5-5-5-5-5-5-5-5-5-5-5-]
E[-7-7-7-7-7-7-7-7--3-3-3-3-3-3-3-3----------------------------------]

e[---------------------------------------------------]
B[---------------------------------------------------]
G[-----------------------------------7-7-7-7-7-7-7-7-]
D[-9-9-9-9-9-9-9-9--5-5-5-5-5-5-5-5--7-7-7-7-7-7-7-7-]
A[-9-9-9-9-9-9-9-9--5-5-5-5-5-5-5-5--5-5-5-5-5-5-5-5-]
E[-7-7-7-7-7-7-7-7--3-3-3-3-3-3-3-3------------------]

e[---------------------------------------------------------------------]
B[---------------------------------------------------------------------]
G[-7-7--9-9-9--11-11-----------------------------------7-7-7-7-7-7-7-7-]
D[-x-x--x-x-x--x--x--9-9-9-9-9-9-9-9--5-5-5-5-5-5-5-5--7-7-7-7-7-7-7-7-]
A[-5-5--7-7-7--9--9--9-9-9-9-9-9-9-9--5-5-5-5-5-5-5-5--5-5-5-5-5-5-5-5-]
E[-------------------7-7-7-7-7-7-7-7--3-3-3-3-3-3-3-3------------------]

e[---------------------------------------------------]
B[---------------------------------------------------]
G[---------------------------------------------------]
D[-7-7-7-7-7-7-7-7--9-9-9-9-9-9-9-9--5-5-5-5-5-5-5-5-]
A[-7-7-7-7-7-7-7-7--9-9-9-9-9-9-9-9--5-5-5-5-5-5-5-5-]
E[-5-5-5-5-5-5-5-5--7-7-7-7-7-7-7-7--3-3-3-3-3-3-3-3-]

BREAK: Same as verse, except guitar 2 plays progression only once, and guitar 1 plays 
plucking riff over it

VERSE 2: Same as verse 1

"we could throw away..."

REPEAT CHORUS

BREAK: play well he's singing "used to be..."

BRIDGE:

Guitar 1 - solo

e[-10----------10-7~-----------------------]
B[---10~-8-7-8-------8-7-8---8~-8-10-8-7~--]
G[-------------------------7---------------]
D[-----------------------------------------]
A[-----------------------------------------]
E[-----------------------------------------]

Guitar 2 - plays same thing it's been playing in the verses

REPEAT CHORUS

OUTRO: Same as BREAK

That's it. Rock on





Comments


Popular Eleventyseven tabs & chords
All The Doubt In Town Chords
And Im A Mormon Chords
Milk The Lightning Chords
More Than A Revolution Tabs
Nightmare Tabs
Odds And Evens Tabs
Here With Me Ukulele
Mammal Song Ukulele
Nostalgiatopia Ukulele
Prom Song Ukulele


Song lyrics



↑ Back to top | Tablatures and chords are parodies/interpretations of the original songs. You may use it for private study, scholarship, research or language learning purposes only
© 2014 AZChords.com Contact us | Privacy policy | DMCA | Add/correct tabs | Request tabs | Top 50 tabs