» » »

Eleventyseven, Myspace Tabs (ver.1)

Artists:  A B C D E F G H I J K L M N O P Q R S T U V W X Y Z # 

Myspace Tabs (ver.1)

Eleventyseven Tabs
 Rating:
4.6/5 (11 votes)
Myspace lessons Tabs too difficult? Try these video lessons and learn fast
1
                this is a really awesome pop punk band from s.c. my home state, i've seen them play live 
couple times and they was great, this song is pretty simple but really catchy, and it 


tuning: standard

note:
*= palm mute
h= hammer on
new intro thanks to Treason Within for providing. i kinda changed it though
e-----------------------------------------------|
b-----------------------------------------------|
g-----------------------------------------------|
d-----4-----4------------4-------2--------------|
a-55----5-55--5--4h5-5------5-------5-4h5-5-----|
e----------------------33------55---------------|
  **      **           **      **

play that like 4 times


verse
e-------------------------------------------------------|
b-------------------------------------------------------|
g-777777777-----------------77777777--------------------|
d-7777777777-5555-9-7-4-555-777777777-555555-777777-----|
a-5555555557-5555-9-7-4-555-555555557-555555-777777-----|
e----------5-3333-7-5-2-333---------5-333333-555555-----|


prechorus pt.1 - x2
e-------------------------------|
b-------------------------------|
g-------------------------------|
d-4444-5555-7777777777777-------|
a-4444-5555-7777777777777-------|
e-2222-3333-5555555555555-------|
  **** ****

prechorus pt.2
e----------------------------------------|
b----------------------------------------|
g----------------------------------------|
d-7-4-22222222224-55555555555555-7-------|
a-7-4-22222222224-55555555555555-7-------|
e-5-2-00000000002-33333333333333-5-------|
                                 *
chorus
e-----------------------------------------------------------------------|
b-----------------------------------------------------------------------|
g-7777777---------------------------------------------------------------|
d-77777779-77777777-55555555-7777777-99999999-77777777-5555555-7777777--|
a-55555559-77777777-55555555-7777777-99999999-77777777-5555555-7777777--|
e--------7-55555555-33333333-5555555-77777777-55555555-3333333-5555555--|
                                     ******** ********

intro again
verse

bridge
e-----------------------------------------------|
b-----------------------------------------------|
g-----------------------------------------------|
d-999999999-55555555-9999999999-777777777-------|
a-999999999-55555555-9999999999-777777777-------|
e-777777777-33333333-7777777777-555555555-------|
x2

clean part
this part im not 100% sure about but it sounds good either way
e------------------------------------|
b-0-0-0-0-2-2-2-2-3-3-3-3-5-5-5-5----|
g--4-4-4-4-4-4-4-4-4-4-4-4-4-4-4-----|
d------------------------------------|
a------------------------------------|
e------------------------------------|

intro
chorus
intro without last note
            
Submit corrections

comments powered by Disqus
↑ Back to top | Eleventyseven Tabs for Myspace. Lyrics for acoustic guitar and electric guitar. 1 Tablatures and chords are parodies/interpretations of the original songs. You may use it for private study, scholarship, research or language learning purposes only