» » »

Eleventyseven, More Than A Revolution Tabs (ver.1)

Artists:  A B C D E F G H I J K L M N O P Q R S T U V W X Y Z # 

More Than A Revolution Tabs (ver.1)

Eleventyseven Tabs
 Rating:
4.4/5 (7 votes)
More Than A Revolution lessons Tabs too difficult? Try these video lessons and learn fast
1
                another hit by 11ty7

note: theres a bunch of like random scratches and p.m. type stuff in this song i just
really point them out very well specifically but all the *'s do represent "p.m." if u
to the song its really easy to figure out.
    - and that each chord isn't typed the exact number of times its played just enough
give an idea of how long to play it.
     -sorry im so lazy


standard tuning
rhythm  x2.......................hey. hey. hey. hey..etc.
e---------------------------------------------------------|
b---------------------------------------------------------|
g-7777777799999999--------------7777777799999999----------|
d-----------------55555557777777----------------555555555-|
a-5555555577777777--------------5555555577777777----------|
e-----------------33333335555555----------------333333333-|

rhythm under lead part
e-------------------------------------------------------------|
b-------------------------------------------------------------|
g-7777777799999999---------------77-7-99-9--------------------|
d-777777779999999955555557777777-77-7-99-9---555555557777777--|
a-555555557777777755555557777777-55-5-77-7---555555557777777--|
e-----------------33333335555555-------------333333335555555--|
                                 **   **

 lead partx2
e-2-0----2-0-----2-0---0-2-3-2-0--------|
b----3-0-----3-------3-----------3-2-3--|
g--------------0------------------------|
d---------------------------------------|
a---------------------------------------|
e---------------------------------------|


verse x2
e-------------------------------------------------|
b-------------------------------------------------|
g-777777----7777777-------------------------------|
d-77777755777777777557799999999555555555777777777-
a-55555555775555555557799999999555555555777777777-
e-------3355-------335577777777333333333555555555-
   ********* ********** *******


prechorus
e---------------------------------------------|
b---------------------------------------------|
g-99999997777777777222229999999---------------|
d-999999977777777772222299999995555555777777-
a-777777755555444440000077777775555555777777-
e------------------------------3333333555555-
  *****************************

chorus x2

e---------------------------------------------------------|
b---------------------------------------------------------|
g-------7777777-----------------77777777--------11\9-7-9--|
d-555555777777777777999999555555777777777777777--x-x-x-x--|
a-555555555555577777999999555555555555557777777--9\7-5-7--|
e-333333-------55555777777333333--------5555555-----------|
                                                |not 2nd time|

intro
lead riff + rhythm behind it
verse
prechorus
chorus

bridge x2
e-----x----x----x----x----x----x--------|
b-----x----x----x----x----x----x--------|
g-----x7777x----x7777x----x7777x--------|
d-5555x7777x5555x7777x5555x7777x7777777-
a-5555x5555x5555x5555x5555x5555x7777777-
e-3333x----x3333x----x3333x----x5555555-
  ***  ***  ***  ***  ***  ***
played with a rhythm

vocal solo "we need more than a revolution..."

chorus


i guess thats about it.. i know its a bit messy but its not really that difficult

have fun..
            
Submit corrections

comments powered by Disqus
↑ Back to top | Eleventyseven Tabs for More Than A Revolution. Lyrics for acoustic guitar and electric guitar. 1 Tablatures and chords are parodies/interpretations of the original songs. You may use it for private study, scholarship, research or language learning purposes only