» » »

Eleventyseven, It's Beautiful Chords (ver.2)

Artists:  A B C D E F G H I J K L M N O P Q R S T U V W X Y Z # 

It's Beautiful Chords (ver.2)

Eleventyseven Tabs
 Rating:
4/5 (4 votes)
It's Beautiful lessons Tabs too difficult? Try these video lessons and learn fast
                -------------------------------------------------------------------------------
                             SONG NAME - Band Name
-------------------------------------------------------------------------------

Tuning:Eb (all strings half step down)

Intro- just guitar
   C   G   D   Em  C   C
eb|3---3---2---3---3---3---|
Bb|3---3---3---3---3---3---|
Gb|0---0---2---0---0---0---|    x2
Db|2---0---0---2---2---2---|
Ab|3---2---0---2---3---3---|
Eb|x---3---x---0---x---x---|


Verse
   C   G   D   Em  C   C
eb|3---3---2---3---3---3---|
Bb|3---3---3---3---3---3---|
Gb|0---0---2---0---0---0---|    x2
Db|2---0---0---2---2---2---|
Ab|3---2---0---2---3---3---|
Eb|x---3---x---0---x---x---|

Then
   D   D
eb|2---2-------------------|
Bb|3---3-------------------|
Gb|2---2-------------------|
Db|0---0-------------------|
Ab|0---0-------------------|
Eb|x---x-------------------|

Chorus
   C   Em  G   G   D
eb|3---3---3---3---2-------|
Bb|3---3---3---3---3-------|
Gb|0---0---0---0---2-------| x 2
Db|2---2---0---0---0-------|
Ab|3---2---2---2---0-------|
Eb|x---0---3---3---x-------|

Then
   C   Em  G   Em   C   G   D   Em   C   G   D   D
eb|3---3---3---3----3---3---2---3----3---3---2---2---|
Bb|3---3---3---3----3---3---3---3----3---3---3---3---|
Gb|0---0---0---0----0---0---2---0----0---0---2---2---|
Db|2---2---0---2----2---0---0---2----2---0---0---0---|
Ab|3---2---2---2----3---2---0---2----3---2---0---0---|
Eb|x---0---3---0----x---3---x---0----x---3---x---x---|

Verse
   C   G   D   Em  C   C
eb|3---3---2---3---3---3---|
Bb|3---3---3---3---3---3---|
Gb|0---0---2---0---0---0---|    x2
Db|2---0---0---2---2---2---|
Ab|3---2---0---2---3---3---|
Eb|x---3---x---0---x---x---|

Then
   D   D
eb|2---2-------------------|
Bb|3---3-------------------|
Gb|2---2-------------------|
Db|0---0-------------------|
Ab|0---0-------------------|
Eb|x---x-------------------|

Chorus
   C   Em  G   G   D
eb|3---3---3---3---2-------|
Bb|3---3---3---3---3-------|
Gb|0---0---0---0---2-------| x 2
Db|2---2---0---0---0-------|
Ab|3---2---2---2---0-------|
Eb|x---0---3---3---x-------|

Last Phrase Again (different, HUGE build up)
   C   Em  G   Em  C   Em  D   D   C   C   C   D   C   D
eb|3---3---3---3---3---3---2---2---3---3---3---2---3---2---|
Bb|3---3---3---3---3---3---3---3---3---3---3---3---3---3---|
Gb|0---0---0---0---0---0---2---2---0---0---0---2---0---2---|
Db|2---2---0---2---2---2---0---0---2---2---2---0---2---0---|
Ab|3---2---2---2---3---2---0---0---3---3---3---0---3---0---|
Eb|x---0---3---0---x---0---x---x---x---x---x---x---x---x---|

HUGE PART
no words
   C   G   D   Em  C   G   D   D
eb|3---3---2---3---3---3---2---2---|
Bb|3---3---3---3---3---3---3---3---|
Gb|0---0---2---0---0---0---2---2---|
Db|2---0---0---2---2---0---0---0---|
Ab|3---2---0---2---3---2---0---0---|
Eb|x---3---x---0---x---3---x---x---|

Chorus
   C   Em  G   G   D
eb|3---3---3---3---2-------|
Bb|3---3---3---3---3-------|
Gb|0---0---0---0---2-------| x 2
Db|2---2---0---0---0-------|
Ab|3---2---2---2---0-------|
Eb|x---0---3---3---x-------|

Then
   C   Em  G   Em
eb|3---3---3---3----|
Bb|3---3---3---3----|
Gb|0---0---0---0----|
Db|2---2---0---2----|
Ab|3---2---2---2----|
Eb|x---0---3---0----|

   C   G   D   Em   C   G   D   D
eb|3---3---2---3----3---3---2---2---|
Bb|3---3---3---3----3---3---3---3---|
Gb|0---0---2---0----0---0---2---2---|x 2
Db|2---0---0---2----2---0---0---0---|
Ab|3---2---0---2----3---2---0---0---|
Eb|x---3---x---0----x---3---x---x---|


Then finish with these downbeats:

   C   G   D   Em  C
eb|3---3---2---3---3---|
Bb|3---3---3---3---3---|
Gb|0---0---2---0---0---|
Db|2---0---0---2---2---|
Ab|3---2---0---2---3---|
Eb|x---3---x---0---x---|
            
Submit corrections

comments powered by Disqus
↑ Back to top | Eleventyseven Chords for It's Beautiful. Lyrics for acoustic guitar and electric guitar. Tablatures and chords are parodies/interpretations of the original songs. You may use it for private study, scholarship, research or language learning purposes only