» » »

Evil Genius Bass tabs (ver.1)

Artists:  A B C D E F G H I J K L M N O P Q R S T U V W X Y Z # 

Evil Genius Bass tabs (ver.1)

Eleventyseven
Rating:
0/5 (0 votes)

Hard to play? Try these video lessons and learn fast.
                -------------------------------------------------------------------------------
-------------------------------------------------------------------------------


Tuning: Half-Step Down
  

  Intro
Gb|---------------------|
Db|------5--------------|
Ab|-5-5---5---------5---|
Eb|-----------3-3----35-|x4
  Pre-Chorus
Gb|----------------------------------------------------------------------------|
Db|----------------------------------------------------------------------------|
Ab|---------55555555------------------------55555555---------------------------|
Eb|-33333333--------555555557777777733333333--------5555555577777777333333335~-|
  Chorus
Gb|------------------------------------------------------------------|
Db|------------------------------------------------------------------|
Ab|-55555555------------------------55555555-------------------------|
Eb|---------555555557777777733333333--------555555553333333377775555-|x2
  Post-Chorus
Gb|---------------------|
Db|------5--------------|
Ab|-5-5---5---------5---|
Eb|-----------3-3----35-|x2
  Pre-Chorus
Gb|----------------------------------------------------------------------------|
Db|----------------------------------------------------------------------------|
Ab|---------55555555------------------------55555555---------------------------|
Eb|-33333333--------555555557777777733333333--------5555555577777777333333335~-|
  Chorus
Gb|------------------------------------------------------------------|
Db|------------------------------------------------------------------|
Ab|-55555555------------------------55555555-------------------------|
Eb|---------555555557777777733333333--------555555553333333377775555-|x2
  Bridge
Gb|--------------------------------------------------------------------|
Db|--------------------------------------------------------------------|
Ab|---------55555555------------------------55555555----------------5~-|
Eb|-33333333--------555555557777777733333333--------5555555577777777---|
  Chorus
Gb|------|----------------------------------------------------------|
Db|------|----------------------------------------------------------|
Ab|-REST-|-------------------------55555555-------------------------|
Eb|------|-555555557777777733333333--------555555553333333377775555-|

Gb|------------------------------------------------------------------|
Db|------------------------------------------------------------------|
Ab|-55555555------------------------55555555-------------------------|
Eb|---------555555557777777733333333--------555555553333333377775555-|



| /  slide up
| \  slide down
| h  hammer-on
| p  pull-off
| ~  vibrato
| +  harmonic
| x  Mute note
===============================================================================
            
Hard to play? Try these video lessons and learn fast. | Correct




comments powered by Disqus
↑ Back to top | Tablatures and chords are parodies/interpretations of the original songs. You may use it for private study, scholarship, research or language learning purposes only