» » »

Eleventyseven, A Stellar Sayonara Tabs (ver.1)

Artists:  A B C D E F G H I J K L M N O P Q R S T U V W X Y Z # 

A Stellar Sayonara Tabs (ver.1)

Eleventyseven Tabs
 Rating:
4.3/5 (6 votes)
A Stellar Sayonara lessons Tabs too difficult? Try these video lessons and learn fast
                
intro x2
e-----------------------------------------|
b-----------------------------------------|
g-777-7/9\7-----6/7-----9/11\9------6/7---|
d-777-x-x-x-555-x-x-999-x--x-x--777-x-x---|
a-555-5/7\5-555-4/5-999-7--9\7--777-4/5---|
e-----------333-----777---------555-------|

rhythm part under the synthesizer part
e-------------------------------------------|
b-------------------------------------------|
g-777777777777------------------------------|
d-777777777777-55555555-9999999999-77777777-|
a-555555555555-55555555-9999999999-77777777-|
e--------------33333333-7777777777-55555555-|

e--------------------------------------------------------|
b--------------------------------------------------------|
g-77-7-77-7----------------------------7777999977779999--|
d-77-7-77-7-55-5-55-5-999999-777777777-xxxxxxxxxxxxxxxx--|
a-55-5-55-5-55-5-55-5-999999-777777777-5555777755557777--|
e-----------33-3-33-3-777777-555555555-------------------|
  **   **   **   **    

verse
e---xx--xx--xx--xx----|
b---xx--xx--xx--xx----|
g-77xx--xx--xx--xx----|
d-77xx55xx99xx77xx----|
a-55xx55xx99xx77xx----|
e---xx33xx77xx55xx----|

e-------------------------------------------|
b-------------------------------------------|
g-777777777777------------------------------|
d-777777777777-55555555-9999999999-77777777-|
a-555555555555-55555555-9999999999-77777777-|
e--------------33333333-7777777777-55555555-|

e---------------------------------------------------------------------|
b---------------------------------------------------------------------|
g-77-7-77-7-----------------------------------------7777999977779999--|
d-77-7-77-7-55-5-55-5-99-9-99-9-77-7-77-7-77-7-77-7-xxxxxxxxxxxxxxxx--|
a-55-5-55-5-55-5-55-5-99-9-99-9-77-7-77-7-77-7-77-7-5555777755557777--|
e-----------33-3-33-3-77-7-77-7-55-5-55-5-55-5-55-5-------------------|
  **   **   **   **   **   **   **   **   **   **


chorus
e-------------------------------------------------------------|
b-------------------------------------------------------------|
g---------------777777------------------------7-7-7-7-7-7-7---|
d-555555-777777-777777-5555555-7777777-999999-7-7-7-7-7-7-7---|
a-555555-777777-555555-5555555-7777777-999999-5-5-5-5-5-5-5---|
e-333333-555555--------3333333-5555555-777777-----------------|

e------------------------------------------------------------|
b------------------------------------------------------------|
g-----------------9-9-4444444--------------------------------|
d-5555555-7777777-9-9-4444444-5555555-7777777----------------|
a-5555555-7777777-7-6-2222222-5555555-7777777----------------|
e-3333333-5555555-------------3333333-5555555----------------|

intro
verse
chorus


e -------------------------------------------------------------------------|
B 7~---7p8p7p8p7p8-5~--7p8p7p8p7p8-5-3~--7-8-10-8-7-10~-1010101010101010---|
G -------------------------------------------------------------------------|
D -------------------------------------------------------------------------|
A -------------------------------------------------------------------------|
E -------------------------------------------------------------------------|

e -------------------------------------------------------------------------|
B 7~--7p8p7p8p7p8-5~--7p8p7p8p7p8-5-3~--7-8-10-8-7-5-3~--------------------|
D -------------------------------------------------------------------------|
G -------------------------------------------------------------------------|
A -------------------------------------------------------------------------|
E -------------------------------------------------------------------------|

the rest is pretty simple just follow the tab
            
Submit corrections

comments powered by Disqus
↑ Back to top | Eleventyseven Tabs for A Stellar Sayonara. Lyrics for acoustic guitar and electric guitar. Tablatures and chords are parodies/interpretations of the original songs. You may use it for private study, scholarship, research or language learning purposes only