» » »

Element Of Crime, Draussen Hinterm Fenster Tabs (ver.1)

Artists:  A B C D E F G H I J K L M N O P Q R S T U V W X Y Z # 

Draussen Hinterm Fenster Tabs (ver.1)

Element Of Crime Tabs
 Rating:
4/5 (4 votes)
Draussen Hinterm Fenster lessons Tabs too difficult? Try these video lessons and learn fast
                Band: Element Of Crime

e/d# 0 2 1 0 0 0
c6   0 0 1 0 1 3

     Intro :  e - e/d# - c6 - B  (2x)

         e              e/d#    c6                 B
     1. Draußen hinterm Fenster sitzt ein Kind und spielt
            C           D        G     B7
        am Motor eines Subarus herum.
            e            e/d#       c6             B
        Ein Oberkellner füllt alle Cognacflaschen um,
              C            D          G
        ein Steuerfahnder bittet um Asyl.
              a                      e
        Vom Freibad kommen die, die nicht ertrunken sind,
             a                   B
        ein Subarubesitzer macht Jagd auf ein Kind

                      G                      a
     R:     und ich frage dich nicht, wo du herkommst,
             D                           G
            du sagst mich nicht, wo wir sind.
                 G                         a
            wir sitzen hier fest, was auch immer geschieht -
                C       B           e - e/d# - c6 - B - e - e/d# - C - B
            verwirrt, träge und verliebt.


          e              e/d#    c6                  B
     2. Draußen hinterm Fenster sitzt ein Kind und rührt
                C                 D             G     B7
        in der Milch der frommen Denkungsart herum.
            e             e/d#     c6              B
        Ein Oberkellner spürt ein Reißen in den Knien,
            C            D                 G
        Ein Eisenbieger nimmt die falsche Tür.
              a                       e
        Vom Kaufhaus kommen die, die nicht verhaftet sind,
             a                              B
        ein sittenstrenger Milchmann macht Jagd auf ein Kind

                      G
     R:     und ich...


          e              e/d#    c6                  B
     3. Draußen hinterm Fenster sitzt ein Kind und malt
            C                D               G    B7
        am Meinungsbild vom nächsten Jahr herum.
             e            e/d#       c6             B
         Ein Oberkellner zahlt alle Gäste aus und geht,
             C             D               G
        ein Cognactrinker wirft den Tresen um.
             a                         e
        Vom Parkplatz kommen die, die nicht zu retten sind,
            a                          B
        ein Ex-Meinungsforscher macht Jagd auf ein Kind
                      G
     R:     und ich...

     End: (Fade out or end on Em)



Intro (2x):
    e       e/d#      c6      B
|-----7-------7-----------------------------------------------------|
|-----8-------8--------10-----7-------------------------------------|
|---9-------8----------8------8-------------------------------------|
|-------------------10--------9-------------------------------------|
|-------------------------------------------------------------------|
|-------------------------------------------------------------------|


Verse:
     e       e/d#      c6     B      C        D         G      B7 
|-----7-------7------------------------------------------3-----2----|
|-----8-------8--------10-----7--------8-------10--------3-----4----|
|---9-------8----------8------8--------9-------11-------------------|
|-------------------10------9-------10------12---------5-----4------|
|-------------------------------------------------------------------|
|-------------------------------------------------------------------|

     e       e/d#      c6     B      C        D         G      G 
|-----7-------7-----------------------------------------------------|
|-----8-------8--------10-----7--------8-------10--------3-----3----|
|---9-------8----------8------8--------9-------11--------3-----3----|
|-------------------10------9--------10------12--------5-----5------|
|-------------------------------------------------------------------|
|-------------------------------------------------------------------|

       a           e         a               B
|-----5-----5------7---7------5-----5--------2---2---2---2----------|
|-----5-----5------8---8------5-----5--------4---4---4---4----------|
|--------------------------------------------4---4---4---4----------|
|----7-----7------9---9------7----7----------4---4---4---4----------|
|--------------------------------------------2---2---2---2----------|
|--------------------------------------------2---2---2---2----------|



end of Chorus:

     C       B       + Intro
|------------------|
|-------8------7---|
|-------9------8---|
|----10------9-----|
|------------------|
|------------------|
verwirrt, träge und verliebt
            
Submit corrections

comments powered by Disqus
↑ Back to top | Element Of Crime Tabs for Draussen Hinterm Fenster. Lyrics for acoustic guitar and electric guitar. Tablatures and chords are parodies/interpretations of the original songs. You may use it for private study, scholarship, research or language learning purposes only