» » »

Element 94, Phone Calls And Answers Bass tabs (ver.1)

Artists:  A B C D E F G H I J K L M N O P Q R S T U V W X Y Z # 

Phone Calls And Answers Bass tabs (ver.1)

Element 94 Tabs
 Rating:
4/5 (4 votes)
Phone Calls And Answers lessons Tabs too difficult? Try these video lessons and learn fast
                
Chorus
G|--------------------------------------------------------------------|
D|--------------------------------------------------------------------|
A|-3333333333333333---------------------------------------------------|
E|------------------333333333333333-555555555555555-11111111111111111-| 

G|-------------------------------------------------------------------------|
D|-------------------------------------------------------------------------|
A|-3333333333333333---------------------------------222-3-2----------------|
E|------------------333333333333333-555555555555555---------111111111111111|

Verse: (1:02)
G|------------------------------------------------------------|
D|------------------------------------------------------------|
A|-3-3333333333-3-3-3333333333-3-3-33333333-3-3-33333-33-33333|
E|------------------------------------------------------------|

G|-----------------------| |---------------------------------|
D|-----------------------| |---------------------------------|
A|-----------------------| |-3-33333-------------------------|
E|-3-33333-1-11111-1-1-1-| |---------3-333333-1-111111-1-1-1-| x2

Pre-Chorus
G|-----------------------------------------------------------------|
D|-------------------------------2---------------------------------|
A|-------------------33333333333---3-------------------------------|
E|-00000000-11111111-----------------00000000-111111-33333333333333|

Chorus x1

Bridge
G|-------------------------------------------------|
D|-------------------------------------------------|
A|-333-3-333-3-------------------------------------|
E|-------------333-3-333-3-555-5-555-5-111-1-111-1-| x2

Ending:
G|-------------------------------------------------------------------------|
D|-------------------------------------------------------------------------|
A|-3333333333333333---------------------------------222-3-2----------------|
E|------------------333333333333333-555555555555555---------111111111111111|
            
Submit corrections

comments powered by Disqus
↑ Back to top | Element 94 Bass for Phone Calls And Answers. Lyrics for acoustic guitar and electric guitar. Tablatures and chords are parodies/interpretations of the original songs. You may use it for private study, scholarship, research or language learning purposes only