» » »

Move On Bass tabs (ver.1)

Artists:  A B C D E F G H I J K L M N O P Q R S T U V W X Y Z # 

Move On Bass tabs (ver.1)

Element 94
Rating:
0/5 (0 votes)

Hard to play? Try these video lessons and learn fast.
                
"Here I go on my own.."
G|------------------------|
D|------------------------|
A|-5-55-------------------|
E|-------5-55-0-00-3-33---| x2 

Verse
G|-------------------------------------------------|
D|-------------------------------------------------|
A|-------------------55555555----------------------|
E|-00000000-33333333----------55555555-00000000-3~-| 

Chorus
G|--------------------------------------|
D|--------------------------------------|
A|-55555555-----------------------------|
E|----------55555555-00000000-33333333--| x2

After Chorus
G|------------------------|
D|------------------------|
A|-5-55-------------------|
E|-------5-55-0-00-3-33---| x4

Verse
G|-------------------------------------------------|
D|-------------------------------------------------|
A|-------------------55555555----------------------|
E|-00000000-33333333----------55555555-00000000-3~-| 

Chorus x2

Bridge
G|-----------------|
D|-----------------|
A|-55-77-----------|
E|-------333-3333--| x6 

end last part with 3~
            
Hard to play? Try these video lessons and learn fast. | Correct




comments powered by Disqus
↑ Back to top | Tablatures and chords are parodies/interpretations of the original songs. You may use it for private study, scholarship, research or language learning purposes only