» » »

Element 94, Every Little Bit Helps Bass tabs (ver.1)

Artists:  A B C D E F G H I J K L M N O P Q R S T U V W X Y Z # 

Every Little Bit Helps Bass tabs (ver.1)

Element 94 Tabs
 Rating:
4/5 (5 votes)
Every Little Bit Helps lessons Tabs too difficult? Try these video lessons and learn fast
                
Why’d I forget your face!?
intro:
G|--------------------------------------------------------------------------------------|
D|--------------------------------------------------------------------------------------|
A|-----------------------5-5-5-5--------------------------------------------------------|
E|-0-0-0-0--33-333--------------55-555-5---0-0-0-0--33-333--55-7-5555-------------------|

Verse:
G|-------------------------------------------------------------------------|
D|-------------------------------------------------------------------------|
A|--55-55----------55-55---------5555555555--------------------------------| x2
E|-----------22-33---------22-33------------------22222-33333--------------|

(1:06)
G|--------------------------------------------------------------------------------------------|
D|----------------------------555555555555-444444444------------------------5555555555-7777777|
A|--55-55-55-55-555--7777777----------------------------55-55-55-55-7777777-------------------|
E|--------------------------------------------------------------------------------------------| x6

back to Intro:
G|------------------------------------------------------------------|
D|------------------------------------------------------------------|
A|------------------5-5-5-5-----------------------------------------|
E|-0-0-0-0--33-333-----------55-555-5---0-0-0-0--33-333--55-7-5555--|

Verse:
G|----------------------------------------------------------|
D|----------------------------------------------------------|
A|--55-55----------55-55---------5555555555--------------5~-| x2
E|---------22-33---------22-33---------------22222-33333----|

breakdown:
G|-----------------------------------------------------------------|
D|-----------------------------------------------------------------|
A|--5-5-5-5-5-5-5-5-5-5-5-5-5-5-5-5--------------------------------|
E|-----------------------------------2-2-2-2-2-2-2-2-3-3-3-3-3-3-3-|
            
Submit corrections

comments powered by Disqus
↑ Back to top | Element 94 Bass for Every Little Bit Helps. Lyrics for acoustic guitar and electric guitar. Tablatures and chords are parodies/interpretations of the original songs. You may use it for private study, scholarship, research or language learning purposes only