>
 >
Verona

Verona Guitar Tabs

Elemeno P - Verona chords, tabs, tablatures, lyrics

Guitar lessons | Add/correct | Request | Top 50 tabs Artists:  A B C D E F G H I J K L M N O P Q R S T U V W X Y Z 0-9

Verona Guitar Tabs – Elemeno P

CD, Sheet music, Poster

Do you like Verona? Share with your friends now
ChordsChords v2Chords v3TabsUkulele
VERONA
As recorded by Elemeno P
(From the 2003 Album LOVE AND DISRESPECT)

        

Words and Music by David Gibson & Justyn Pilbrow


Gtr I (E A D G B E) - 'Gtr. 1 (Distortion)'

 Intro / Verse  0:00
  Fast Rock Q=173
  A5                     E5
 4/4
  Gtr I
|------------|---------|------------|-----|
|------------|---------|------------|-----|
|-2-2-2------|---------|------------|-----|
|-2-2-2------|---------|-2-2-2------|-----|
|-0-0-0------|---------|-2-2-2------|-----|
|------------|---------|-0-0-0------|-----|


  F#5          E/Ab         A5V          D5
|------------|------------|------------|------------|
|------------|------------|------------|------------|
|------------|------------|------------|-7-7-7------|
|-4-4-4------|------------|-7-7-7------|-7-7-7------|
|-4-4-4------|-7-7-7------|-7-7-7------|-5-5-5------|
|-2-2-2------|-4-4-4------|-5-5-5------|------------|


  A5                     E5
|------------|---------|------------|-----|
|------------|---------|------------|-----|
|-2-2-2------|---------|------------|-----|
|-2-2-2------|---------|-2-2-2------|-----|
|-0-0-0------|---------|-2-2-2------|-----|
|------------|---------|-0-0-0------|-----|


  F#5          Fmaj7/A      A5V          D5
|------------|------------|------------|------------------|
|------------|-5-5-5------|------------|------------------|
|------------|-4-4-4------|------------|-7-7-7-7-7-7-7-7--|
|-4-4-4------|-2-2-2------|-7-7-7------|-7-7-7-7-7-7-7-7--|
|-4-4-4------|------------|-7-7-7------|-5-5-5-5-5-5-5-5--|
|-2-2-2------|-4-4-4------|-5-5-5------|------------------|


 Pre-Chorus  0:22
  C#5               B5                F#5               A5
|-----------------|-----------------|-----------------|------------------|
|-----------------|-----------------|-----------------|------------------|
|-----------------|-----------------|-----------------|-2-2-2-2-2-2-2-2--|
|-6-6-6-6-6-6-6-6-|-4-4-4-4-4-4-4-4-|-4-4-4-4-4-4-4-4-|-2-2-2-2-2-2-2-2--|
|-4-4-4-4-4-4-4-4-|-2-2-2-2-2-2-2-2-|-4-4-4-4-4-4-4-4-|-0-0-0-0-0-0-0-0--|
|-----------------|-----------------|-2-2-2-2-2-2-2-2-|------------------|


  D5                E5VII             C#5               N.C.
                                      PM------------|
|-----------------|-----------------|-----------------|------------------|
|-----------------|-----------------|-----------------|------------------|
|-7-7-7-7-7-7-7-7-|-9-9-9-9-9-9-9-9-|-----------------|------------------|
|-7-7-7-7-7-7-7-7-|-9-9-9-9-9-9-9-9-|-6-6-6-6-6-6-6-6-|------------------|
|-5-5-5-5-5-5-5-5-|-7-7-7-7-7-7-7-7-|-4-4-4-4-4-4-4-4-|-5-5-4-4-7-7-4-4--|
|-----------------|-----------------|-----------------|------------------|


 Chorus  0:33
  D5/A                     E5/B    A5V                      E5/B
|---------------|----------------|---------------|-----------------|
|---------------|----------------|---------------|-----------------|
|-7--7--7-7-7-7-|-(7)-7-7--9--9--|---------------|----------9--9---|
|-7--7--7-7-7-7-|-(7)-7-7--9--9--|-7--7--7-7-7-7-|-(7)-7-7--9--9---|
|-5--5--5-5-5-5-|-(5)-5-5--7--7--|-7--7--7-7-7-7-|-(7)-7-7--7--7---|
|-5--5--5-5-5-5-|-(5)-5-5--7--7--|-5--5--5-5-5-5-|-(5)-5-5--7--7---|


  D5/A                     E5/B    A5V         C#5/Ab
|---------------|----------------|---------------|--------------------|
|---------------|----------------|---------------|--------------------|
|-7--7--7-7-7-7-|-(7)-7-7--9--9--|-------------6-|-(6)-6-6-6-6-6-6-6--|
|-7--7--7-7-7-7-|-(7)-7-7--9--9--|-7--7--7-7-7-6-|-(6)-6-6-6-6-6-6-6--|
|-5--5--5-5-5-5-|-(5)-5-5--7--7--|-7--7--7-7-7-4-|-(4)-4-4-4-4-4-4-4--|
|-5--5--5-5-5-5-|-(5)-5-5--7--7--|-5--5--5-5-5-4-|-(4)-4-4-4-4-4-4-4--|


  D                 E                 F#5               A
                    PM|     PM|       PM|     PM|       PM|     PM|
|-----------------|-----------------|-----------------|------------------|
|-----3-3-----3-3-|-----------------|-----------------|------------------|
|-----2-2-----2-2-|-----1-1-----1-1-|-----------------|-----2-2-----2-2--|
|-0-0-0-0-0-0-0-0-|-----2-2-----2-2-|-----4-4-----4-4-|-2-2-2-2-2-2-2-2--|
|-0-0-0-0-0-0-0-0-|-2-2-2-2-2-2-2-2-|-4-4-4-4-4-4-4-4-|-0-0-0-0-0-0-0-0--|
|-----------------|-0-0-0-0-0-0-0-0-|-2-2-2-2-2-2-2-2-|------------------|


  F#m        E          D          A5E5
|----------|----------|----------|---------------|
|----------|----------|-3--------|---------------|
|-2--------|-1--------|-2--------|-2-------------|
|-4--------|-2--------|-0--------|-2-2--2--2--2--|
|-4--------|-2--------|-0--------|-0-2--2--2--2--|
|-2--------|-0--------|----------|---0--0--0--0--|


 Verse 2  0:54
  A5                     E5
|------------|---------|------------|-----|
|------------|---------|------------|-----|
|-2-2-2------|---------|------------|-----|
|-2-2-2------|---------|-2-2-2------|-----|
|-0-0-0------|---------|-2-2-2------|-----|
|------------|---------|-0-0-0------|-----|


  F#5          E/Ab         A5V          D5
|------------|------------|------------|------------|
|------------|------------|------------|------------|
|------------|------------|------------|-7-7-7------|
|-4-4-4------|------------|-7-7-7------|-7-7-7------|
|-4-4-4------|-7-7-7------|-7-7-7------|-5-5-5------|
|-2-2-2------|-4-4-4------|-5-5-5------|------------|


  A5                     E5
|------------|---------|------------|-----|
|------------|---------|------------|-----|
|-2-2-2------|---------|------------|-----|
|-2-2-2------|---------|-2-2-2------|-----|
|-0-0-0------|---------|-2-2-2------|-----|
|------------|---------|-0-0-0------|-----|


  F#5          Fmaj7/A      A5V          D5
|------------|------------|------------|------------------|
|------------|-5-5-5------|------------|------------------|
|------------|-4-4-4------|------------|-7-7-7-7-7-7-7-7--|
|-4-4-4------|-2-2-2------|-7-7-7------|-7-7-7-7-7-7-7-7--|
|-4-4-4------|------------|-7-7-7------|-5-5-5-5-5-5-5-5--|
|-2-2-2------|-4-4-4------|-5-5-5------|------------------|


 Pre-Chorus  1:17
  C#5               B5                F#5               A5
|-----------------|-----------------|-----------------|------------------|
|-----------------|-----------------|-----------------|------------------|
|-----------------|-----------------|-----------------|-2-2-2-2-2-2-2-2--|
|-6-6-6-6-6-6-6-6-|-4-4-4-4-4-4-4-4-|-4-4-4-4-4-4-4-4-|-2-2-2-2-2-2-2-2--|
|-4-4-4-4-4-4-4-4-|-2-2-2-2-2-2-2-2-|-4-4-4-4-4-4-4-4-|-0-0-0-0-0-0-0-0--|
|-----------------|-----------------|-2-2-2-2-2-2-2-2-|------------------|


  D5                E5VII             C#5               N.C.
                                      PM------------|
|-----------------|-----------------|-----------------|------------------|
|-----------------|-----------------|-----------------|------------------|
|-7-7-7-7-7-7-7-7-|-9-9-9-9-9-9-9-9-|-----------------|------------------|
|-7-7-7-7-7-7-7-7-|-9-9-9-9-9-9-9-9-|-6-6-6-6-6-6-6-6-|------------------|
|-5-5-5-5-5-5-5-5-|-7-7-7-7-7-7-7-7-|-4-4-4-4-4-4-4-4-|-5-5-4-4-7-7-4-4--|
|-----------------|-----------------|-----------------|------------------|


 Chorus  1:28
  D5/A                     E5/B    A5V                      E5/B
|---------------|----------------|---------------|-----------------|
|---------------|----------------|---------------|-----------------|
|-7--7--7-7-7-7-|-(7)-7-7--9--9--|---------------|----------9--9---|
|-7--7--7-7-7-7-|-(7)-7-7--9--9--|-7--7--7-7-7-7-|-(7)-7-7--9--9---|
|-5--5--5-5-5-5-|-(5)-5-5--7--7--|-7--7--7-7-7-7-|-(7)-7-7--7--7---|
|-5--5--5-5-5-5-|-(5)-5-5--7--7--|-5--5--5-5-5-5-|-(5)-5-5--7--7---|


  D5/A                     E5/B    A5V         C#5/Ab
|---------------|----------------|---------------|--------------------|
|---------------|----------------|---------------|--------------------|
|-7--7--7-7-7-7-|-(7)-7-7--9--9--|-------------6-|-(6)-6-6-6-6-6-6-6--|
|-7--7--7-7-7-7-|-(7)-7-7--9--9--|-7--7--7-7-7-6-|-(6)-6-6-6-6-6-6-6--|
|-5--5--5-5-5-5-|-(5)-5-5--7--7--|-7--7--7-7-7-4-|-(4)-4-4-4-4-4-4-4--|
|-5--5--5-5-5-5-|-(5)-5-5--7--7--|-5--5--5-5-5-4-|-(4)-4-4-4-4-4-4-4--|


  D                 E                 F#5               A
                    PM|     PM|       PM|     PM|       PM|     PM|
|-----------------|-----------------|-----------------|------------------|
|-----3-3-----3-3-|-----------------|-----------------|------------------|
|-----2-2-----2-2-|-----1-1-----1-1-|-----------------|-----2-2-----2-2--|
|-0-0-0-0-0-0-0-0-|-----2-2-----2-2-|-----4-4-----4-4-|-2-2-2-2-2-2-2-2--|
|-0-0-0-0-0-0-0-0-|-2-2-2-2-2-2-2-2-|-4-4-4-4-4-4-4-4-|-0-0-0-0-0-0-0-0--|
|-----------------|-0-0-0-0-0-0-0-0-|-2-2-2-2-2-2-2-2-|------------------|


  F#m        E          D          A5E5
|----------|----------|----------|---------------|
|----------|----------|-3--------|---------------|
|-2--------|-1--------|-2--------|-2-------------|
|-4--------|-2--------|-0--------|-2-2--2--2--2--|
|-4--------|-2--------|-0--------|-0-2--2--2--2--|
|-2--------|-0--------|----------|---0--0--0--0--|


 Bridge  1:49
  A5         N.C.
|----------|---------|---------|-----|
|----------|---------|---------|-----|
|-2--------|---------|---------|-----|
|-2--------|---------|---------|-----|
|-0--------|---------|---------|-----|
|----------|---------|---------|-----|


|---------|---------|-0-0-0-0-0-0-0-0-|--------|
|---------|---------|-5-5-5-5-5-5-5-5-|--------|
|---------|---------|-----------------|--------|
|---------|---------|-----------------|--------|
|---------|---------|-----------------|-21\----|
|---------|---------|-----------------|-21\----|


 Out-Chorus  2:00
  D5/A                     E5/B    A5V                      E5/B
|---------------|----------------|---------------|-----------------|
|---------------|----------------|---------------|-----------------|
|-7--7--7-7-7-7-|-(7)-7-7--9--9--|---------------|----------9--9---|
|-7--7--7-7-7-7-|-(7)-7-7--9--9--|-7--7--7-7-7-7-|-(7)-7-7--9--9---|
|-5--5--5-5-5-5-|-(5)-5-5--7--7--|-7--7--7-7-7-7-|-(7)-7-7--7--7---|
|-5--5--5-5-5-5-|-(5)-5-5--7--7--|-5--5--5-5-5-5-|-(5)-5-5--7--7---|


  D5/A                     E5/B    A5V         C#5/Ab
|---------------|----------------|---------------|--------------------|
|---------------|----------------|---------------|--------------------|
|-7--7--7-7-7-7-|-(7)-7-7--9--9--|-------------6-|-(6)-6-6-6-6-6-6-6--|
|-7--7--7-7-7-7-|-(7)-7-7--9--9--|-7--7--7-7-7-6-|-(6)-6-6-6-6-6-6-6--|
|-5--5--5-5-5-5-|-(5)-5-5--7--7--|-7--7--7-7-7-4-|-(4)-4-4-4-4-4-4-4--|
|-5--5--5-5-5-5-|-(5)-5-5--7--7--|-5--5--5-5-5-4-|-(4)-4-4-4-4-4-4-4--|


  D                 E                 F#5               A
                    PM|     PM|       PM|     PM|       PM|     PM|
|-----------------|-----------------|-----------------|------------------|
|-----3-3-----3-3-|-----------------|-----------------|------------------|
|-----2-2-----2-2-|-----1-1-----1-1-|-----------------|-----2-2-----2-2--|
|-0-0-0-0-0-0-0-0-|-----2-2-----2-2-|-----4-4-----4-4-|-2-2-2-2-2-2-2-2--|
|-0-0-0-0-0-0-0-0-|-2-2-2-2-2-2-2-2-|-4-4-4-4-4-4-4-4-|-0-0-0-0-0-0-0-0--|
|-----------------|-0-0-0-0-0-0-0-0-|-2-2-2-2-2-2-2-2-|------------------|


  F#m        E          D          E
|----------|----------|----------|------------------|
|----------|----------|-3--------|------------------|
|-2--------|-1--------|-2--------|-1-1-1-1-1-1-1-1--|
|-4--------|-2--------|-0--------|-2-2-2-2-2-2-2-2--|
|-4--------|-2--------|-0--------|-2-2-2-2-2-2-2-2--|
|-2--------|-0--------|----------|-0-0-0-0-0-0-0-0--|


    A5                                  E
||------------------|-----------------|-----------------|------------------||
||o-----------------|-----------------|-----------------|-----------------o||
||--2-2-2-2-2-2-2-2-|-2-2-2-2-2-2-2-2-|-1-1-1-1-1-1-1-1-|-1-1-1-1-1-1-1-1--||
||--2-2-2-2-2-2-2-2-|-2-2-2-2-2-2-2-2-|-2-2-2-2-2-2-2-2-|-2-2-2-2-2-2-2-2--||
||o-0-0-0-0-0-0-0-0-|-0-0-0-0-0-0-0-0-|-2-2-2-2-2-2-2-2-|-2-2-2-2-2-2-2-2-o||
||------------------|-----------------|-0-0-0-0-0-0-0-0-|-0-0-0-0-0-0-0-0--||


    A5VII                               E5VII
||------------------|-----------------|-----------------|------------------||
||o-----------------|-----------------|-----------------|-----------------o||
||--9-9-9-9-9-9-9-9-|-9-9-9-9-9-9-9-9-|-9-9-9-9-9-9-9-9-|-9-9-9-9-9-9-9-9--||
||--7-7-7-7-7-7-7-7-|-7-7-7-7-7-7-7-7-|-9-9-9-9-9-9-9-9-|-9-9-9-9-9-9-9-9--||
||o-0-0-0-0-0-0-0-0-|-0-0-0-0-0-0-0-0-|-7-7-7-7-7-7-7-7-|-7-7-7-7-7-7-7-7-o||
||------------------|-----------------|-----------------|------------------||


  A5
|----------|------------*|
|----------|------------*|
|-2--------|-2-2-2------*|
|-2--------|-2-2-2------*|
|-0--------|-0-0-0------*|
|----------|------------*|

Have fun!

Oh and hey Bryn if you read this!!!





Comments


Popular Elemeno P tabs & chords
11:57 1 Bass Tabs
Hold On Chords
Urban Getaway Chords
Verona Chords
Death And The Maiden Tabs
Fast Times In Tahoe Tabs
Fast Times In Tahoe 3 Tabs
Nirvana 1 Tabs
One Left Standing Intro Tabs
Weed Out Tabs


Song lyrics



↑ Back to top | Tablatures and chords are parodies/interpretations of the original songs. You may use it for private study, scholarship, research or language learning purposes only
© 2014 AZChords.com Contact us | Privacy policy | DMCA | Add/correct tabs | Request tabs | Top 50 tabs