» » »

Nirvana Tabs (ver.2)

Artists:  A B C D E F G H I J K L M N O P Q R S T U V W X Y Z # 

Nirvana Tabs (ver.2)

Elemeno P
Rating:
0/5 (0 votes)

Hard to play? Try these video lessons and learn fast.
                Intro:
e|---------------------------------------------------------------------------|\
B|---------------------------------------------------------------------------| \
G|---------------5--10-10-10-9-9--7-7--5-5-5--10-10-10-10-10-5-5-5-5-5-10-12-|  |x2
D|---7-7-7--5-5--5--10-10-10-9-9--7-7--5-5-5--10-10-10-10-10-5-5-5-5-5-10-12-|  |
A|---7-7-7--5-5--3--8--8--8--7-7--5-5--3-3-3--8--8--8--8--8--3-3-3-3-3-8--10-| /
E|---5-5-5--3-3--------------------------------------------------------------|/

Chorus:
e|---------------------------------------------------------------------------|\
B|---------------------------------------------------------------------------| \
G|------------------------------------------5-5-5-5-10-10-10-10-5-5-5-5-10-12|  |x2
D|-7-7-7--------------3-3-3-----------------5-5-5-5-10-10-10-10-5-5-5-5-10-12|  |
A|-7-7-7I Like Nirvana3-3-3-----------------3-3-3-3-8--8--8--8--3-3-3-3-8--10| /
E|-5-5-5--------------1-1-1--It Doesnt Mean I'll Shoot Myself----Shoot Myself|/

Repeat Intro.
Repeat Chorus.
Repeat Intro.

Bridge:
e|---------------------------------------------|\
B|---------------------------------------------| \
G|-55555555------------------------------------|  |x3
D|-55555555-555555555-77777777-----------------|  |
A|-33333333-555555555-77777777-----3/2-----3/2-| /
E|----------333333333-55555555-111-----111-----|/
                               ***     ***
Repeat a few times then:

e|--------------------------------------|
B|--------------------------------------|
G|-55555555-1010101010101010----------5-| Hold the last chord.
D|-55555555-1010101010101010-55555555-5-|
A|-33333333-8-8-8-8-8-8-8-8--55555555-3-|
E|---------------------------33333333---|
                             ********

Guitar One plays the intro for the next part, while guitar two plays the solo.

Solo:
e|--------------------------8-8-10p8-8-8-10p8-8-8-12-13-12-10-12-8-8-12-13-12-|
B|---------------8p6-5-6-5----------------------------------------------------|
G|-5-5-4-5-7-5-5--------------------------------------------------------------|
D|----------------------------------------------------------------------------|
A|----------------------------------------------------------------------------|
E|----------------------------------------------------------------------------|

Solo (continued)
e|-10-12-8-8-12-13-12-10-12-------------|
B|--------------------------5-7-9-10-12-|
G|--------------------------------------|
D|--------------------------------------|
A|--------------------------------------|
E|--------------------------------------|
Just repeat intro twice and then play this:

Outro:
e|---------------------|
B|---------------------|
G|---------------------|
D|-7-7-7-5-5-5-xx-3333-|
A|-7-7-7-5-5-5-xx-3333-|
E|-5-5-5-3-3-3-xx-1111-|

Big Up's to Elemeno P for one of many great songs on the Love&Disrespect Album
much appreciated (except if its hate mail, i dont appreciate that).
            
Hard to play? Try these video lessons and learn fast. | Correct




comments powered by Disqus
↑ Back to top | Tablatures and chords are parodies/interpretations of the original songs. You may use it for private study, scholarship, research or language learning purposes only