» » »

Elemeno P, Everydays A Saturday Tabs (ver.2)

Artists:  A B C D E F G H I J K L M N O P Q R S T U V W X Y Z # 

Everydays A Saturday Tabs (ver.2)

Elemeno P Tabs
Rating:
5/5 (2 votes)
Everydays A Saturday lessons Tabs too difficult? Try these video lessons and learn fast
                -------------------------------------------------------------------------------
-------------------------------------------------------------------------------

Tuning:Standard

intro(pt.I)(bass):
e|-------------------|
B|-------------------|
G|-------------------|
D|-------------------|
A|----6-4-6---6-4-6--|
E|--4-------4--------|

intro(pt.II):    (pt.III)
e|--------------|-------------|
B|--------------|-------------|
G|-----8--6--8--|--5--8\6--8--|
D|--6--8--6--8--|--5--8\6--8--|
A|--6--6--4--6--|--3--6\4--6--|
E|--4-----------|-------------|

verse:                            prechorus:
e|-------------------------------|----------|
B|-------------------------------|----------|
G|-----6-----6-----6--5--8\6--8--|-----8----|
D|--6--6--6--6--6--6--5--8\6--8--|--6--8-6--|
A|--6--4--6--4--6--4--3--6\4--6--|--6--6-6--|
E|--4-----4-----4----------------|--4----4--|

chorus(pt.I):           (pt.II)
e|-------------------|-------------------|
B|-------------------|-------------------|
G|-----------8\6--8--|-----------8\6--5--|
D|--6--5--3--8\6--8--|--6--5--3--8\6--5--|
A|--6--5--3--6\4--6--|--6--5--3--6\4--3--|
E|--4--3--1----------|--4--3--1----------|

bridge
e|--------------------------|
B|--------------------------|
G|-----------8--6--5--6--8--|
D|--6--5--3--8--6--5--6--8--|
A|--6--5--3--6--4--3--4--6--|
E|--4--3--1-----------------|

ORDER:
intro(pt.I):x1
intro(pt.II):x1
intro(pt.III):x1
verse:x1
intro(pt.II):x2
verse:x1
prechorus:x1
chorus(pt.I):x1 \
chorus(pt.II):x1 |
chorus(pt.I):x1  |chorus
chorus(pt.II):x1/
intro(pt.II):x2
verse:x1
prechorus:x1
chorus:x2
bridge:x2
chorus:4
            
Submit corrections

comments powered by Disqus
↑ Back to top | Elemeno P Tabs for Everydays A Saturday. Lyrics for acoustic guitar and electric guitar. Tablatures and chords are parodies/interpretations of the original songs. You may use it for private study, scholarship, research or language learning purposes only