» » »

Elemeno P, Death And The Maiden Tabs (ver.1)

Artists:  A B C D E F G H I J K L M N O P Q R S T U V W X Y Z # 

Death And The Maiden Tabs (ver.1)

Elemeno P Tabs
 Rating:
4/5 (5 votes)
Death And The Maiden lessons Tabs too difficult? Try these video lessons and learn fast
1
                Death & the Maiden (cover)
Drop D
(Make the low E string when holding the 7 fret sound the same as the A string)

This is my first tab and it probably sucks. I take corrections always.
I couldnt figure out the second verse apart from that little bit.
Amazing NZ band and this is the only tab for the elemeno p version of this song.
It was originally made by the Verlaines.


** The number of times you play these is not clear
*** Hard to find the strum pattern
First Verse:
E|-------------------------------------------------------------------------|
B|-------------------------------------------------------------------------|
G|-------------------------------------------------------------------------|
D|-8x64--10x16--12x32--13x16--12x16--10x16---**----------------------------|
A|-------------------------------------------------------------------------|
D|-------------------------------------------------------------------------|
  all of these are palm muted
“You're just too, you're too obscure for me” etc

Pre chorus:
E |-----------------------------------------------------------|
B |-----------------------------------------------------------|
G |-----------------------------------------------------------|
D |-11---55---33---33----------------------------3~-----------|
A |-11---55---33---33----------------------------3~-----------|
D |-11---55---33---33----------------------------3~-----------|
                                                      let it ring on the pause between 
and death”
Do like Paul Verlaine? Is it gonna rain today? etc

Chorus:
E |------------------------------------------------------------------|
B |------------------------------------------------------------------|
G |---3-3333x--------------------------------------------------------|
D |---3-3333x-----1-1111x----5-5555x----33333~-----------------------|
A |---1-1111x-----1-1111x----5-5555x----33333~-----------------------|
D |---------------1-1111x----5-5555x----33333~-----------------------|
Verlaine, Verlaine, Verlaine, Verlaine, Verlaine etc ***

Second Verse:
E |--------------------------------------------------------------------|
B |--------------------------------------11----------------------------|
G |--------10---------10-------10--10----------------------------------|
D |----88-------8-88------8-88----8---8--------------------------------|
A |--------------------------------------------------------------------|
D |--------------------------------------------------------------------|
Couldnt figure out the rest of this bit.

"You shouldn't talk to me find better company there's better people to know"
For this bit, it is either really quiet guitar or bass.

For the rest (pre chorus and chorus) just play the same thing.

Lyrics:

You're just too you're too obscure for me
Oh and you don't really get through to me
And there's no need for you to talk that way
Is there really less special little things to say?

Do like Paul Verlaine?
Is it gonna rain today?
Shall we have our photo taken?
We'll look like Death and The Maiden (yeah)

Verlaine, Verlaine, Verlaine,
Verlaine, Verlaine etc

And I still choose to lose the way I like
I fool around, slit my arms out of spite
But I won't reject so long as you make sense
But I'm through the ruse and vague intentions

You shouldn't talk to me
find better company
There's better people to know
You'll only end up like rimbaud
Get shot by

Verlaine, Verlaine, Verlaine,
Verlaine, Verlaine etc

You shouldn't talk to me
find better company
There's better people to know
You'll only end up like rimbaud
Get shot by Verlaine

Verlaine, Verlaine, Verlaine,
Verlaine, Verlaine
Verlaiaine

Please rate me and corrections are welcome in the comments thing.
            
Submit corrections

comments powered by Disqus
↑ Back to top | Elemeno P Tabs for Death And The Maiden. Lyrics for acoustic guitar and electric guitar. 1 Tablatures and chords are parodies/interpretations of the original songs. You may use it for private study, scholarship, research or language learning purposes only