>
 >
Sabor A Chocolate

Sabor A Chocolate Bass Tabs

Elefante - Sabor A Chocolate chords, tabs, tablatures, lyrics

Guitar lessons | Add/correct | Request | Top 50 tabs Artists:  A B C D E F G H I J K L M N O P Q R S T U V W X Y Z 0-9

Sabor A Chocolate Bass Tabs – Elefante

CD, Sheet music, Poster

Do you like Sabor A Chocolate? Share with your friends now
Bass TabsTabs
El Bajizta de Stolen saco esta Rolitaa a puroo Oidoo! porque por varias semanas 
buscaba la tab en bajo de esta rola,,,cosa que no hay...asi que para ayudar a la bandaa! 
Un saludo a Neza y toda la banda de ahi muy chida!

Vzk-Bass!


|Intro|

G|-----------|--------------|--------------|---------------|
D|-----------|--------------|--------------|---------------|
A|-----------|-----7-----7--|-----7-----7--|-----9------9--|
E|---12\-----|--5-----8-----|--5-----8-----|--7-----11-----|

G|-----9------9--|--------------|--------------|---------------|
D|--7-----10-----|--------------|-----7-----7--|-----9------9--|
A|---------------|-----7-----7--|--5-----8-----|--7-----11-----|
E|---------------|--5-----8-----|--------------|---------------|

|Verso 1|


G|-----9------9--|--------------|--------------|
D|--7-----10-----|--------------|--------------|
A|---------------|--0--0--3--0--|--0--0--3--0--|
E|---------------|--------------|--------------|


G|--------------|-------------------|--------------|
D|--------------|-------------------|--------------|
A|--2--2--6--2--|-------------------|--0--0--3--0--|
E|--------------|--5-5-3-3-2-2-0-0--|--------------|


G|--------------|--------------|
D|--0--0--3--0--|--------------|
A|--------------|--2--2--6--2--|
E|--------------|--------------|

|Pre-Coro|


G|-------------------|-----------------|--------------|
D|-------------------|-----------------|--------------|
A|-------------------|-0-0-2-3-0-3-5-7-|--5--8--5--5--|
E|--5-5-3-3-2-2-0-0--|-----------------|--------------|


G|--------------|--------------|-----------------|
D|--------------|--------------|-----------------|
A|--7--7--5--7--|--5--8--5--8--|-0-0-2-3-0-3-5-7-|
E|--------------|--------------|-----------------|


G|--------------|--------------|--------------|--------------|
D|--------------|--------------|--------------|--------------|
A|--5--8--5--5--|--7--7--5--7--|--3--1--3--3--|--5--5--5--5--|
E|--------------|--------------|--------------|--------------|


|Verso 2|


G|--------------|--------------|--------------|-----------------|
D|--------------|--------------|--------------|-----------------|
A|--------------|--0--0--3--0--|--2--2--6--2--|-----------------|
E|--0--0--3--0--|--------------|--------------|-5-5-3-3-2-2-0-0-|


G|--------------|--------------|--------------|-----------------|
D|--------------|--------------|--------------|-----------------|
A|--------------|--0--0--3--0--|--2--2--6--2--|-----------------|
E|--0--0--3--0--|--------------|--------------|-5-5-3-3-2-2-0-0-|


|Pre-Coro|


G|-----------------|--------------|--------------|--------------|
D|-----------------|--------------|--------------|--------------|
A|-0-0-2-3-0-3-5-7-|--5--8--5--5--|--7--7--5--7--|--0--0--3--0--|
E|-----------------|--------------|--------------|--------------|


G|-----------------|--------------|--------------|--------------|
D|-----------------|--------------|--------------|--------------|
A|-0-0-2-3-0-3-5-7-|--5--8--5--5--|--7--7--5--7--|--3--3--3--3--|
E|-----------------|--------------|--------------|--------------|


G|-----------------|--------------|--------------|--------------|
D|-----------------|--------------|--------------|--------------|
A|-0-0-2-3-0-3-5-7-|--5--8--5--5--|--7--7--5--7--|--3--3--3--3--|
E|-----------------|--------------|--------------|--------------|


|Coro|


G|--------------|---------------|---------------|--------------|
D|--------------|---------------|---------------|--------------|
A|--5--5--5--5--|-----7--7--10--|-----7--7--10--|-----2-----2--|
E|--------------|--5------------|--5------------|--0-----4-----|


G|--------------|---------------|--------------|--------------|
D|--------------|---------------|--------------|--------------|
A|-----3--7--8--|-----7--7--10--|----7--7--10--|-----2-----2--|
E|--5-----------|--5------------|--5-----------|--0-----4-----|


|Interlude|


G|-------------|--------------|-------------|---------------|
D|-------------|--------------|----7-----7--|-----9------9--|
A|-----3--7----|-----7-----7--|-5-----8-----|--7-----11-----|
E|--5-------8--|--5-----8-----|-------------|---------------|


G|---------------|--------------|--------------|---------------|
D|-----9------9--|--------------|-----7-----7--|-----9------9--|
A|--7-----10-----|-----7-----7--|--5-----8-----|--7-----11-----|
E|---------------|--5-----8-----|--------------|---------------|


|Verso 3|


G|---------------|--------------|--------------|--------------|
D|-----9------9--|--------------|--------------|--------------|
A|--7-----10-----|--------------|--0--0--3--0--|--------------|
E|---------------|--0--0--3--0--|--------------|--2--2--6--2--|


G|------------------|--------------|--------------|--------------|
D|------------------|--------------|--0--0--3--0--|--------------|
A|-5-5-3-3-2-2-0-0--|--0--0--3--0--|--------------|--2--2--6--2--|
E|------------------|--------------|--------------|--------------|


|Pre-Coro|


G|-----------------|-----------------|--------------|--------------|
D|-----------------|-----------------|--------------|--------------|
A|-----------------|-0-0-2-3-0-3-5-7-|--5--8--5--5--|--7--7--5--7--|
E|-5-5-3-3-2-2-0-0-|-----------------|--------------|--------------|


G|--------------|-----------------|--------------|--------------|
D|--------------|-----------------|--------------|--------------|
A|--5--3--0--0--|-0-0-2-3-0-3-5-7-|--5--8--5--5--|--7--7--5--7--|
E|--------------|-----------------|--------------|--------------|


G|--------------|--------------|
D|--------------|--------------|
A|--3--3--5--3--|--5--5--7--5--|
E|--------------|--------------|


|Coro|


G|---------------|---------------|--------------|--------------|
D|---------------|---------------|--------------|--------------|
A|-----7--7--10--|--5--7--7--10--|-----2-----2--|-----3--7-----|
E|--5------------|---------------|--0-----4-----|--5--------8--|


G|---------------|---------------|--------------|--------------|
D|---------------|---------------|--------------|--------------|
A|-----7--7--10--|--5--7--7--10--|-----2-----2--|-----3--7-----|
E|--5------------|---------------|--0-----4-----|--5--------8--|


G|---------------|---------------|--------------|--------------|
D|---------------|---------------|--------------|--------------|
A|-----7--7--10--|--5--7--7--10--|-----2-----2--|-----3--7-----|
E|--5------------|---------------|--0-----4-----|--5--------8--|


G|---------------|---------------|--------------|--------------|
D|---------------|---------------|--------------|--------------|
A|-----7--7--10--|--5--7--7--10--|-----2-----2--|-----3--7-----|
E|--5------------|---------------|--0-----4-----|--5--------8--|


|Solo|



G|-9-12-9-7-9-14-12-9-12-|-9-12-9-7-9-7-14-12-9-12-|
D|-----------------------|-------------------------|
A|-----------------------|-------------------------|
E|-----------------------|-------------------------| (x2)

G|---------------|---------------|--------------|--------------|
D|---------------|---------------|--------------|--------------|
A|-----7--7--10--|--5--7--7--10--|-----2-----2--|-----3--7-----|
E|--5------------|---------------|--0-----4-----|--5--------8--|


G|---------------|---------------|--------------|--------------|
D|---------------|---------------|--------------|--------------|
A|-----7--7--10--|--5--7--7--10--|-----2-----2--|-----3--7-----|
E|--5------------|---------------|--0-----4-----|--5--------8--|


G|---------------|---------------|--------------|--------------|
D|---------------|---------------|--------------|--------------|
A|-----7--7--10--|--5--7--7--10--|-----2-----2--|-----3--7-----|
E|--5------------|---------------|--0-----4-----|--5--------8--|


G|---------------|---------------|--------------|--------------|
D|---------------|---------------|--------------|--------------|
A|-----7--7--10--|--5--7--7--10--|-----2-----2--|-----3--7-----|
E|--5------------|---------------|--0-----4-----|--5--------8--|


G|---------------|---------------|--------------|--------------|
D|---------------|---------------|--------------|--------------|
A|-----7--7--10--|--5--7--7--10--|-----2-----2--|-----3--7-----|
E|--5------------|---------------|--0-----4-----|--5--------8--|


G|--------------|-----------------|
D|--------------|-----------------|
A|--------------|-----------------|
E|----0----4----|-0-4-0-4-0-4-0-4-|





Comments


Popular Elefante tabs & chords
Abandonao Chords
Vamos Chords
A Donde Vayas Tabs
Asi Es La Vida Tabs
El Abandonado Tabs
La Batalla Tabs
Ladron De Corazones Tabs
Mentirosa Tabs
Sabor A Chocolate Tabs
Beatriz Ukulele


Song lyrics



↑ Back to top | Tablatures and chords are parodies/interpretations of the original songs. You may use it for private study, scholarship, research or language learning purposes only
© 2014 AZChords.com Contact us | Privacy policy | DMCA | Add/correct tabs | Request tabs | Top 50 tabs