» » »

There's A Silence Bass tabs (ver.1)

Artists:  A B C D E F G H I J K L M N O P Q R S T U V W X Y Z # 

There's A Silence Bass tabs (ver.1)

Electric Soft Parade
Rating:
0/5 (0 votes)

Hard to play? Try these video lessons and learn fast.
                Artist- Electric Soft Parade
Song Title- There's a Silence

intro and verse
G--------4----------------------
D----4-6---6--------------------
A--4---------4-4-7--------------
E------------------4-7----------
    x2

G--------------------------------4-------------
D--------------------4-6-----4-6---6-----------
A------7-7-------7---------4---------4-2-2-----
E--5-5-----7-5-5---5---------------------------

Chorus
G-------------------------------
D-------------------------------
A--7-7-7---7-7-7-7--------------
E--------5---------5-5-9--8-----


Guitar Part near end (what else am I sposed 2 call it?)
G---------------------------------------
D--5-5-5---5-5-5------------------------
A--------5-------5-5-7-6----------------
E---------------------------------------
  x2
            
Hard to play? Try these video lessons and learn fast. | Correct




comments powered by Disqus
↑ Back to top | Tablatures and chords are parodies/interpretations of the original songs. You may use it for private study, scholarship, research or language learning purposes only