>
 >
The Newark Airport Boogie

The Newark Airport Boogie Guitar Tabs

Electric Six - The Newark Airport Boogie chords, tabs, tablatures, lyrics

Guitar lessons | Add/correct | Request | Top 50 tabs Artists:  A B C D E F G H I J K L M N O P Q R S T U V W X Y Z 0-9

The Newark Airport Boogie Guitar Tabs – Electric Six

CD, Sheet music, Poster

Do you like The Newark Airport Boogie? Share with your friends now
Tabs
-------------------------------------------------------------------------------
-------------------------------------------------------------------------------

Tuning: Standard

Intro/Verse Riff

Shake and bake your turkey to the left...
e|------------------------------------------------|
B|------------7------10--10---7-------------------|
G|----7---9------7----------------9---7-----------|  
D|------------------------------------------------|
A|------------------------------------------------|
E|------------------------------------------------|

Verse end (replace with verse before pre-chorus)

... as being a nun...
e|------------------------------------------------|
B|------------7-----------------------------------|
G|----7---9------7--7/----------------------------|  
D|------------------------------------------------|
A|------------------------------------------------|
E|------------------------------------------------|


Pre-Chorus

Here's the part everybody breaks into song...
e|--------------------------------------------------------------------|
B|--------------------------------------------------------------------|
G|--------------------7-----------------------------------------------|   
D|----5---------------7---------------7---xx--7---xx--7---xx--7---xx--| x3
A|----5---------------5---------------7---xx--7---xx--7---xx--7---xx--|
E|----3-------------------------------5---xx--5---xx--5---xx--5---xx--|


It doesn't matter how you get...
e|-----------------------------|
B|-----------------------------|
G|-----------------------------|
D|----2---------------5--------|
A|----2---------------5--------|
E|----0---------------3--------|

Chorus

Oh, we're gonna bounce 2 times tonight...
e|-----------------------------------------------------------|
B|-----------------------------------------------------------|
G|-----------------------------------------------------------|
D|----12-------5-------12-------5-------12-------5-------2---|   x2
A|----12-------5-------12-------5-------12-------5-------2---|
E|----10-------3-------10-------3-------10-------3-------0---|

It's an oldie but a goodie...
e|-------------------------|
B|-------------------------|
G|--------------------7----|
D|----5---------------7----|
A|----5---------------5----|
E|----3--------------------|


Intro x2
Verse x8 
Pre-Chorus
Verse x8
Pre-Chorus
Chorus
Verse x8
Pre-Chorus
Chorus

Song Lyrics:

Shake and bake your turkey to the left
Move your doggie to the right
Move your feet into the fire
Foam at the mouth all night
Washing, rinsing, repeating
Until it's done
And it's about as much fun, baby
As being a nun

Here's the time everybody breaks into song
It doesn't matter how you sing along, just sing along
It doesn't matter how you turn it on, just turn it on
It doesn't matter how you get it right, just don't be wrong

The sheik he don't lie
He drive a Mercedes Benz
The sheik he build a big house
In Dubai for his sheik friends
The sheik sometimes he need to go
A million miles an hour
When he plays his sheik guitar solo
He soak up all the power

Here's the time everybody breaks into song
It doesn't matter how you sing along, just sing along
It doesn't matter how you turn it on, just turn it on
50 million screaming China-men just, can't be wrong

Oh we gonna bounce
Two times tonight (two times tonight)
Five times tonight (five times tonight)
Eight times tonight
10 times a night

And my momma say Miguel Bose
Ain't the same without Bimba Bose
And the sound of the night tonight
You can't deny

It's an oldie but a goodie
It's the Newark Airport Boogie

My momma say Miguel Bose
Ain't the same without Bimba Bose
My momma say Miguel Bose
Ain't the same without Bimba Bose
My momma say Miguel Bose
Ain't the same without Bimba Bose
My momma say Miguel Bose
Ain't the same without Bimba Bose

Everybody stand and scream "Bose! Bose!"
Even though he ain't got nothing going in the USA
His tight pants and his eyeliner will surely blow you away
He always kills the night in the same way night kills the day

Oh we gonna bounce
Two times tonight (two times tonight)
Five times tonight (five times tonight)
Eight times tonight
10 times a night

And the sheik don't lie
Oh my my my my
And the sheik don't lie
Oh my my my my
And the sound of the night tonight
You can't deny

It's and oldie but a goodie
It's the Newark Airport Boogie





Comments


Popular Electric Six tabs & chords
Band In Hell Bass Tabs
Electric Demons In Love Bass Tabs
Im The Bomb Bass Tabs
Jimmy Carter Bass Tabs
Nuclear War On The Dance Floor Bass Tabs
Pink Flamingos Bass Tabs
Rubber Rocket Bass Tabs
Rubber Rocket 3 Bass Tabs
Rock Show Tabs
Whole Song - Gay Bar Tabs


Song lyrics



↑ Back to top | Tablatures and chords are parodies/interpretations of the original songs. You may use it for private study, scholarship, research or language learning purposes only
© 2014 AZChords.com Contact us | Privacy policy | DMCA | Add/correct tabs | Request tabs | Top 50 tabs