>
 >
Synthesizer

Synthesizer Bass Tabs

Electric Six - Synthesizer chords, tabs, tablatures, lyrics

Guitar lessons | Add/correct | Request | Top 50 tabs Artists:  A B C D E F G H I J K L M N O P Q R S T U V W X Y Z 0-9

Synthesizer Bass Tabs – Electric Six

CD, Sheet music, Poster

Do you like Synthesizer? Share with your friends now
Bass TabsChordsTabsUkulele
-------------------------------------------------------------------------------
                             Synthesizer - Electric Six
-------------------------------------------------------------------------------

Tuning:Standard


Intro
G|--------------------------------------------------------------------------|
D|--12----------------------------------------------------------------------|
A|------12------------------------------------------------------------------|
E|--------------------------------------------------------------------------|

Verse 
G|-----------------------9-9--11-11--12-12-11-9---|     G|------------------|
D|--10-10-X-10-X-10-X-10--------------------------| X3  D|--12--------------|
A|------------------------------------------------|     A|------12----------|
E|------------------------------------------------|     E|----------12\-----|

G|------------------------------------------------|     G|------------------|
D|------------------------------------------------| X3  D|--------5/7-------|
A|--3-3-X-3-X-3-X-3-------------------------------|     A|--5---------------|
E|------------------0-0-2-2-3-3-2-0---------------|     E|-----5------------|

Chorus
G|--------------------------------------------------------------------------|
D|-----5------------7-------------------------------------------------------|
A|----------------------------------------------6-9-----10-8----------------|
E|--3-----3--3-0-5-----5--5-3-0--0--3p0-0-0-3-7-----8-8---------------------|

G|--------------------------------------------------------------------------|
D|--------------------------------------------------------------------------|
A|------------------------------------------6-9-----10-8--------------------|
E|--3--3--3--3-3-5--5--55-5-5-0--0--0--0--7-----8-8-------------------------|


Verse

But End With..
G|---------------------------------|
D|---------------------------------|
A|--5------------------------------|
E|-----5--7/12\--------------------|

Chorus 2
G|--------------------------------------------------------------------------|
D|-----5------------7-------------------------------------------------------|
A|--------------------------------------------------6-9-----7-10------------|
E|--3-----3--3-0-5-----0-5-5-5-3-0--0--00-0-0-0--7------8-8-----------------|

G|--------------------------------------------------------------------------|
D|--------------------------------------------------------------------------|
A|--------------------------------------------6-9-----10-8------------------|
E|--3--3--33-3-3--5--5--55-5-5--0--0--0--0--7-----8-8-----------------------|

G|--------------------------------------------------------------------------|
D|--------------------------------------------------------------------------|
A|----------------7--------------------------------------------7---7--------|
E|--8-8-8--88-8-8---5-5-5-55/12121212-10--8-8-8--8-8-8--5-5-5----8----------|

G|--------------------------------------------------------------------------|
D|--------------------------------------------------------------------------|
A|----------------7------------------------------------7--------------------|
E|--8-8-8--88-8-8---5-5-5-55/12121212----8-8-8--88-8-8---5-5-5-55/12121212--|

Verse 3
G|-----------------------------------|     G|-------------------------------|
D|-----------------------------------| X3  D|-------------------------------|
A|--3-3-3-3-3-3-3-3------------------|     A|--5----------------------------|
E|------------------0-0-2-2-3-3-2-0--|     E|-----5--/\---------------------|

Chorus 3
G|-----------------------------------------------------------------------|
D|-----5------------7----------------------------------------------------| X2
A|--------------------------------------------------6-9-----10-8-8-------|
E|--3-----3--3-0-5-----0-5-5-5-3-0--0--00-0-0-0--7------8-8--------------|

You can trip on my...
G|-----------------------------------------------------------------------|
D|-----------------------------------------------------------------------|
A|-------------------------------------14----------14-------6-9-----10-8-|
E|--3--333-3333333--5-555-5555555--12------12--12------12-7-----8-8------|

G|--------------------------------------9------9-------------------------|
D|------------------------------------9------9---------------------------|
A|---------------------------------7------7--------6-9-----10-8-8--------|
E|--3--333-3333333--5-555-5555555----------------7-----8-8---------------|

Outro
"Let's Go"
G|--------------------------------------------------------------------------|
D|--------------------------------------6-9-----6-9-------------------------|
A|------2-5-----2-5-----4-7-----4-7-7-7-----7-7-------6-6/9---10-8----------|
E|--3-3-----3-3-----5-5-----5-5---------------------7-------8---------------|

G|--------------------------------------------------------------------------|
D|--------------------------------------------------------------------------|
A|------2-5-----2-5-----4-7-----4-7-7-7-7-7-7-7-7-7-------7-------7---------|
E|--3-3-----3-3-----5-5-----5-5---------------------7-7-7---8-8-8-----------|

G|--------------------------------------------------------------------------|
D|--------------------------------------------------------------------------|
A|-----5------------7---------7--7--7p0-7-7-5-----------7-10-7--------------|
E|--3-----3-3--0-5-----5-5--3-----------------7-7-7-8-8---------------------|

G|--------------------------------------------------------------------------|
D|--------------------------------------------------------------------------|
A|-----------------------------7------------------6-9-----10-8-8------------|
E|--3--3--0h3-0h3--0h3-5-5-0h5---8-0--0--0--3-5-7-----8-8-------------------|

G|---------------------------------------9-9----9-9-------------------------|
D|--------------------------------------------------------------------------|
A|-------------------------------------------7------77777----9\--7-10\------|
E|--3--3--3-3-3-3-3-3--5--5--5-5-5-5-5-5------------------7----8------------|

G|--------------------------------------------------------------------------|
D|--------------------------------------------------------------------------|
A|-------------------------5/7\5--7--7--7-7--5---6-9-----10-8---------------|
E|--3-0h3-0h3-0h3--0--5-5----------------------7-----8-8--------------------|

G|--------------------------------------------------------------------------|
D|--------------------------------------5-6-----5-6-------------------------|
A|------3-5-----3-5-----4-6-----4-6-7-7-----7-7--------7--------------------|
E|--3-3-----3-3-----5-5-----5-5---------------------7-----8-----------------|

| /  slide up
| \  slide down
| h  hammer-on
| p  pull-off
| ~  vibrato
| +  harmonic
| x  Mute note
===============================================================================





Comments


Popular Electric Six tabs & chords
Danger! High Voltage Bass Tabs
Gay Bar Part 2 Bass Tabs
Slices Of You Bass Tabs
 Gay Bar Tabs
 Gay Bar 1 Tabs
American Cheese Tabs
Band In Hell Tabs
Face Cuts Tabs
Gay Bar, Correct & Complete 1 Tabs
Take Off Your Clothes Tabs


Song lyrics



↑ Back to top | Tablatures and chords are parodies/interpretations of the original songs. You may use it for private study, scholarship, research or language learning purposes only
© 2014 AZChords.com Contact us | Privacy policy | DMCA | Add/correct tabs | Request tabs | Top 50 tabs