» » »

She's White Bass tabs (ver.1)

Artists:  A B C D E F G H I J K L M N O P Q R S T U V W X Y Z # 

She's White Bass tabs (ver.1)

Electric Six
Rating:
0/5 (0 votes)

Tabs too difficult? Try these video lessons and learn fast.
                She’s White
Electric Six


Here’s the bass tab for She’s White
Standard Tuning

Drum Intro

Bass Intro
| ----------------------------------|
| ----------------------------------|
| ----------------------------------|
| /77777777777777777777777777777775-|

Riff 1
| ----------------------------------------------------|
| ----------------------------------------------------|
| ----------------------------------------------------|
| 7-7--5-7-7--5-7-7--5-7-7--5-7-7--5-7-7--5-7-5-7-5-7-|

Verse x2
| ------------------------------------|--------------------------|
| ------------------------------------|--------------------------|
| -----7-9-9-9-11-10--------5-5-5-7-6-|--------------------------|
| 7-7-----------------3-3-5-----------|-5-5--3-5-5--3-5-5--3-5-5-|

Pre-Chorus 1
| -------------------------------------------------------------------|
| -------------------------------------------------------------------|
| -------------------------------------------------------------------|
| 7-7-7-7-7-7-7-5--3-3-3-3-3-3-3-0--5-5-5-5-5-5-5-5--0-0-0-0-0-0-0-0-|

| ---------------------------------------------------|
| ---------------------------------------------------|
| 8--6-8-6-10-10-8-10-8-8--6-8-6-10-10-10-10-10--10\-|
| ---------------------------------------------------|

Chorus 1
| --------------------------------------------------|
| --------------------------------------------------|
| ----------------5-5-------------------------------|
| 5-7-7--5-7-7--5-----5--3-5-5--3-5-5--3-0-0--3-5-3-|

| -------------------------------------------------------|
| ---------------------------------------------5-7-5-----|
| ----------------5-5----------------------5-7-------7-5-|
| 5-7-7--5-7-7--5-----5--3-5-5--3-5-5-7-7----------------|

Riff 1
| ----------------------------------------------------|
| ----------------------------------------------------|
| ----------------------------------------------------|
| 7-7--5-7-7--5-7-7--5-7-7--5-7-7--5-7-7--5-7-5-7-5-7-|

Verse x2
| ------------------------------------|--------------------------|
| ------------------------------------|--------------------------|
| -----7-9-9-9-11-10--------5-5-5-7-6-|--------------------------|
| 7-7-----------------3-3-5-----------|-5-5--3-5-5--3-5-5--3-5-5-|

Pre-Chorus 2
| -------------------------------------------------------------------|
| -------------------------------------------------------------------|
| ---------------------------------------------------7-7-7-7-7-5-----|
| 7-7-7-7-7-7-7-5--3-3-3-3-3-3-3-0--5-5-5-5-5-5-5-5--------------7-5-|

| ---------------------------------------------------|
| ---------------------------------------------------|
| 8--6-8-6-10-10-8-10-8-8--6-8-6-10-10-10-10-10--10\-|
| ---------------------------------------------------|

Chorus 2 x2
| --------------------------------------------------|
| --------------------------------------------------|
| ----------------5-5-------------------------------|
| 5-7-7--5-7-7--5-----5--3-5-5--3-5-5--3-0-0--3-5-3-|

Riff 1
| ----------------------------------------------------|
| ----------------------------------------------------|
| ----------------------------------------------------|
| 7-7--5-7-7--5-7-7--5-7-7--5-7-7--5-7-7--5-7-5-7-5-7-|

Guitar Solo
| ------------------------------------|--------------------------|
| ------------------------------------|--------------------------|
| -----7-9-9-9-11-10--------5-5-5-7-6-|--------------------------|
| 7-7-----------------3-3-5-----------|-5-5--3-5-5--3-5-5--3-5-5-|

| -------------------------------------------------------------------|
| -------------------------------------------------------------------|
| ---------------------------------------------------7-7-7-7-7-7-7-7-|
| 7-7-7-7-7-7-7-5--3-3-3-3-3-3-3-0--5-5-5-5-5-5-5-5------------------|

| ---------------------------------------------------|
| ---------------------------------------------------|
| 8--6-8-6-10-10-8-10-8-8--6-8-6-10-11-12-13-14--10\-|
| ---------------------------------------------------|

Verse x2
| ------------------------------------|--------------------------|
| ------------------------------------|--------------------------|
| -----7-9-9-9-11-10--------5-5-5-7-6-|--------------------------|
| 7-7-----------------3-3-5-----------|-5-5--3-5-5--3-5-5--3-5-5-|

Pre-Chorus 3
| -------------------------------------------------------------------|
| -------------------------------------------------------------------|
| ---------------------------------------------------7-7-5-5---------|
| 7-7-7-7-7-7-7-7--3-3-3-3-3-3-3-3--5-5-5-5-5-5-5-5----------7-7-5-5-|

| ----------------------------------------------|
| ----------------------------------------------|
| 8--6-8-6-10-10-8-10-8-8--6-8-6-7-0-7-0-7--10\-|
| ----------------------------------------------|

Chorus 1
| --------------------------------------------------|
| --------------------------------------------------|
| ----------------5-5-------------------------------|
| 5-7-7--5-7-7--5-----5--3-5-5--3-5-5--3-0-0--3-5-3-|

| ------------------------------------------------------|
| --------------------------------------------5-7-5-----|
| ----------------5-5---------------------5-7-------7-5-|
| 5-7-7--5-7-7--5-----5--3-5-5--3-5-5-7-7---------------|

Riff 1
| ----------------------------------------------------|
| ----------------------------------------------------|
| ----------------------------------------------------|
| 7-7--5-7-7--5-7-7--5-7-7--5-7-7--5-7-7--5-7-5-7-5-7-|

That’s It!
            
Tabs too difficult? Try these video lessons and learn fast.


comments powered by Disqus
↑ Back to top | Tablatures and chords are parodies/interpretations of the original songs. You may use it for private study, scholarship, research or language learning purposes only