» » »

Electric Six, Rock Show Tabs (ver.2)

Artists:  A B C D E F G H I J K L M N O P Q R S T U V W X Y Z # 

Rock Show Tabs (ver.2)

Electric Six Tabs
 Rating:
4/5 (4 votes)
Rock Show lessons Tabs too difficult? Try these video lessons and learn fast
1
                Okay this is my first tab. Enjoi?


Riff 1
         G#            C#  B5
e|----------------------|
B|----------------------|
G|------------ 6-4------|
D|---666--66--6-4-------|
A|---666--66--4-2-------|
E|---444--44------------|

Riff 2
        G#    B5   G#  B5*
e|-----------------------------|
B|-----------------------------|
G|------ -4------4-------4-----|
D|---66--4--66--4---66--4-6----|
A|---66--2--66--2---66--2-6----|
E|---44-----44------ 44----4---|

*As for the B5 being played that way, it can also be played like this, which might be easier:
e|------|
B|------|
G|------|
D|--9--
A|--9--
E|--7--

Riff 3
      A#
e|---------------|
B|---------------|
G|---------------|      x2
D|- 8------------|
A|- 8--x32-------|
E|--6------------|
            
Submit corrections

comments powered by Disqus
↑ Back to top | Electric Six Tabs for Rock Show. Lyrics for acoustic guitar and electric guitar. 1 Tablatures and chords are parodies/interpretations of the original songs. You may use it for private study, scholarship, research or language learning purposes only