» » »

Electric Six, Rip It Tabs (ver.1)

Artists:  A B C D E F G H I J K L M N O P Q R S T U V W X Y Z # 

Rip It Tabs (ver.1)

Electric Six Tabs
 Rating:
4/5 (4 votes)
Rip It lessons Tabs too difficult? Try these video lessons and learn fast
                -------------------------------------------------------------------------------
-------------------------------------------------------------------------------

Tuning: Standard

This is tabbed from start to finish with lyrics UNDER tabs.
Play along to understand timing and changes. It is a bit long but i got sick
of having to fiddle with my mouse to keep up, hope this works.

Intro

e|--------------------------------------------------------|
B|--------------------------------------------------------|
G|--------------------------------------------------------|
D|-----9-9-----9-9-----9--7-9------9-9-----9-9-----9------|
A|------------------------5/7-------------------------5-7-|
E|-7-7-----7-7-----7-7---------7-7-----7-7-----7-7----3/5-|

e|--------------------------------------------------------|
B|--------------------------------------------------------|
G|--------------------------------------------------------|
D|-----9-9-----9-9-----9--7-9------9-9-----9-9------------|
A|------------------------5/7-----------------------------|
E|-7-7-----7-7-----7-7---------7-7-----7-7-----7----------|

Bassline:
G|---------------------------------------------------------------------------|
D|---------------------------------------------------------------------------|
A|---------------------------------------------------------------------------|
E|--7-7-7-7-7-7-7-7-7-7-7-7-7-7-7-7-3-3-3-3-3-3-3-3-5-5-5-5-5-5-5-5----------|

When a problem needs a problem solver
Guess who gets the call?
Me that's all

G|---------------------------------------------------------------------------|
D|---------------------------------------------------------------------------|
A|---------------------------------------------------------------------------|
E|--7-7-7-7-7-7-7-7-7-7-7-7-7-7-7-7-3-3-3-3-3-3-3-3-5-5-5-5-5-5-5-5----------|

You're duelling with a plugged revolver
Guess who dropped the ball
The writing's on the wall

Back to guitar:
e|---------------------------------------------------------------------------|
B|---------------------------------------------------------------------------|
G|-----------------------------------------9-9-9-9-9-9-----------------------|
D|-----------------------------------------9-9-9-9-9-9-12-12-12-12-12-9-9-9-9|
A|-9-9-9-9-9-9-9-9-12-12-12-12-12-12-12-12-7-7-7-7-7-7-10-10-10-10-10-9-9-9-9|
E|-7-7-7-7-7-7-7-7-10-10-10-10-10-10-10-10----------------------------7-7-7-7|

The French sent us copper lady
Long since turning green
And all points in-between
Burning 50 million MegaWatts of
Gasoline

e|-----------------------|
B|-----------------------|
G|--7-9------------------|
D|--7-9-----5-10-9-9-9-9-| X2
A|--5/7p(0)-5-10-9-9-9-9-|
E|----------3-8--7-7-7-7-|

e|-----------------------------------------------------------------|
B|-----------------------------------------------------------------|
G|-----------------------------------------------------------------|
D|-7-7-7-7-7-7-7-7-9-9-9-9-9-9-9-9-5-5-5-5-5-5-5-5-9-9-9-9-9-9-9-9-|
A|-7-7-7-7-7-7-7-7-9-9-9-9-9-9-9-9-5-5-5-5-5-5-5-5-9-9-9-9-9-9-9-9-|
E|-5-5-5-5-5-5-5-5-7-7-7-7-7-7-7-7-3-3-3-3-3-3-3-3-7-7-7-7-7-7-7-7-|

I accept my destiny
I shall start a legacy
The likes of which you've never seen
Make them rip it
Rip it clean

e|---------------------------------|
B|---------------------------------|
G|---------------------------------|
D|-7-7-7-7-7-7-7-7-9-9-9-9-9-9-9-9-|
A|-7-7-7-7-7-7-7-7-9-9-9-9-9-9-9-9-|
E|-5-5-5-5-5-5-5-5-7-7-7-7-7-7-7-7-|


I accept my destiny
I am a ripping machine
So help me!

e|-----------------------|
B|-----------------------|
G|--7-9------------------|
D|--7-9-----5-10-9-9-9-9-| X3
A|--5/7p(0)-5-10-9-9-9-9-|
E|----------3-8--7-7-7-7-|

Rip it! Rip it!
Rip it! Rip it!
Rip it! Rip it!

e|--------------------------------------------------------|
B|--------------------------------------------------------|
G|--------------------------------------------------------|
D|-----9-9-----9-9-----9--7-9------9-9-----9-9-----9------|
A|------------------------5/7-------------------------5-7-|
E|-7-7-----7-7-----7-7---------7-7-----7-7-----7-7----3/5-|

e|--------------------------------------------------------|
B|--------------------------------------------------------|
G|--------------------------------------------------------|
D|-----9-9-----9-9-----9--7-9------9-9-----9-9------------|
A|------------------------5/7-----------------------------|
E|-7-7-----7-7-----7-7---------7-7-----7-7-----7----------|

Bassline:
G|---------------------------------------------------------------------------|
D|---------------------------------------------------------------------------|
A|---------------------------------------------------------------------------|
E|--7-7-7-7-7-7-7-7-7-7-7-7-7-7-7-7-3-3-3-3-3-3-3-3-5-5-5-5-5-5-5-5----------|

You're listening to your politicians
They claim to speak to God
Can't you see it's just a fraud?

G|---------------------------------------------------------------------------|
D|---------------------------------------------------------------------------|
A|---------------------------------------------------------------------------|
E|--7-7-7-7-7-7-7-7-7-7-7-7-7-7-7-7-3-3-3-3-3-3-3-3-5-5-5-5-5-5-5-5----------|

You're rituals and superstitions
Don't you find them kind of odd?
Might as well kneel before Zod

Back to guitar:
e|---------------------------------------------------------------------------|
B|---------------------------------------------------------------------------|
G|-----------------------------------------9-9-9-9-9-9-----------------------|
D|-----------------------------------------9-9-9-9-9-9-12-12-12-12-12-9-9-9-9|
A|-9-9-9-9-9-9-9-9-12-12-12-12-12-12-12-12-7-7-7-7-7-7-10-10-10-10-10-9-9-9-9|
E|-7-7-7-7-7-7-7-7-10-10-10-10-10-10-10-10----------------------------7-7-7-7|

The French sent us a copper lady
Long since turning green
And all points in-between
Burning 50 million MegaWatts of
Gasoline

e|-----------------------|
B|-----------------------|
G|--7-9------------------|
D|--7-9-----5-10-9-9-9-9-| X2
A|--5/7p(0)-5-10-9-9-9-9-|
E|----------3-8--7-7-7-7-|

Oooh!

e|-----------------------------------------------------------------|
B|-----------------------------------------------------------------|
G|-----------------------------------------------------------------|
D|-7-7-7-7-7-7-7-7-9-9-9-9-9-9-9-9-5-5-5-5-5-5-5-5-9-9-9-9-9-9-9-9-|
A|-7-7-7-7-7-7-7-7-9-9-9-9-9-9-9-9-5-5-5-5-5-5-5-5-9-9-9-9-9-9-9-9-|
E|-5-5-5-5-5-5-5-5-7-7-7-7-7-7-7-7-3-3-3-3-3-3-3-3-7-7-7-7-7-7-7-7-|


I accept my destiny
I shall start a legacy
The likes of which you've never seen
Make them rip it
Rip it clean

e|---------------------------------|
B|---------------------------------|
G|---------------------------------|
D|-7-7-7-7-7-7-7-7-9-9-9-9-9-9-9-9-|
A|-7-7-7-7-7-7-7-7-9-9-9-9-9-9-9-9-|
E|-5-5-5-5-5-5-5-5-7-7-7-7-7-7-7-7-|


I accept my destiny
I am a ripping machine
So help me!

e|-----------------------|
B|-----------------------|
G|--7-9------------------|
D|--7-9-----5-10-9-9-9-9-| X3
A|--5/7p(0)-5-10-9-9-9-9-|
E|----------3-8--7-7-7-7-|


Rip it! Rip it!
Rip it! Rip it!
Rip it! Rip it!

e|--------------------------------------------------------|
B|--------------------------------------------------------|
G|--------------------------------------------------------|
D|-----9-9-----9-9-----9--7-9------9-9-----9-9-----9------| slower
A|------------------------5/7-------------------------5-7-|
E|-7-7-----7-7-----7-7---------7-7-----7-7-----7-7----3/5-|

GUITAR SORTA STOPS HAVING ANY FORM FROM HERE...
JUST DOODLE IN KEY I GUESS

Put me in motion
Drink the potion
Use the lotion
Drain the ocean
Cause commotion
Fake devotion
Entertain a notion
Be Nova Scotian

Drink the potion
Put me in motion
Use the lotion
Drain the ocean
Cause commotion
Fake devotion
Entertain a notion
Be Nova Scotian

Drink the potion
Put me in motion
Use the lotion
Drain the ocean
Cause commotion
Fake devotion
Be Nova Scotian
Be Nova Scotian
Be Nova Scotian
Be Nova Scotian
Be Nova Scotian
Be Nova Scotian
Be Nova Scotian
Be Nova Scotian
Be Nova Scotian

Rip it!
===============================================================================
            
Submit corrections

comments powered by Disqus
↑ Back to top | Electric Six Tabs for Rip It. Lyrics for acoustic guitar and electric guitar. Tablatures and chords are parodies/interpretations of the original songs. You may use it for private study, scholarship, research or language learning purposes only