» » »

Electric Six, Rip It Bass tabs (ver.1)

Artists:  A B C D E F G H I J K L M N O P Q R S T U V W X Y Z # 

Rip It Bass tabs (ver.1)

Electric Six Tabs
 Rating:
4/5 (4 votes)
Rip It lessons Tabs too difficult? Try these video lessons and learn fast
1
                
Intro

G|--------------------------------|
D|-----9-9-----9-9-----9----------|
A|--------------------------------|
E|-7-7-----7-7-----7-7----3-5-----|  x3

G|------------------------------|
D|-----9-9-----9-9-----9--------|
A|------------------------------|
E|-7-7-----7-7-----7-7----7/----|

Verse:
G|-------------------------------------------------------------------------|
D|-------------------------------------------------------------------------|
A|-------------------------------------------------------------------------|
E|--7-7-7-7-7-7-7-7-7-7-7-7-7-7-7-7-3-3-3-3-3-3-3-3-5-5-5-5-5-5-5-5--------| x2


The French sent us copper lady………
G|-----------------------------------------------------------------|
D|-----------------------------------------------------------------|
A|----------------------------------5-5-5-5-5-5-5-5-------5--------|
E|--7-7-7-7-7-7-7-7-7-7-7-7-7-7-7-7-----------------7-5-7----------|

G|-----------------------------------|
D|-------------------5-5-5-5-5-5-5-5-|
A|-- 7-7-7-7-7-7-7-7-----------------|
E|-----------------------------------|

G|------------------------------|
D|-----9-9-----9-9-----9--------|
A|------------------------------|
E|-7-7-----7-7-----7-7----3-5---|

G|------------------------------|
D|-----9-9-----9-9-----9--------|
A|------------------------------|
E|-7-7-----7-7-----7-7----7/----|

Chorus

G|---------------------------------|
D|---------------------------------|
A|---------------------------------|
E|-5-5-5-5-5-5-5-5-7-7-7-7-7-7-7-7-|


G|---------------------------------|
D|---------------------------------|
A|-----------------5-5-5-5-5-5-5-5-|
E|-3-3-3-3-3-3-3-3-----------------|

G|---------------------------------|
D|---------------------------------|
A|---------------------------------|
E|-5-5-5-5-5-5-5-5-7-7-7-7-7-7-7-7-|

G|--------------------------------|
D|-----------------9-9-----9-9----|
A|-5-7-5-----5--------------------|  x2
E|-------7-5---7-7-----7-7--------|

G|-------|
D|-------|
A|-------|
E|--7/---|


That’s basically it, repeat the verse and chorus. Not a lot of bass in the outro, 
just do a slide or two
            
Submit corrections

comments powered by Disqus
↑ Back to top | Electric Six Bass for Rip It. Lyrics for acoustic guitar and electric guitar. 1 Tablatures and chords are parodies/interpretations of the original songs. You may use it for private study, scholarship, research or language learning purposes only