» » »

Electric Six, Riding On The White Train Tabs (ver.1)

Artists:  A B C D E F G H I J K L M N O P Q R S T U V W X Y Z # 

Riding On The White Train Tabs (ver.1)

Electric Six Tabs
Rating:
2/5 (1 vote)
Riding On The White Train lessons Tabs too difficult? Try these video lessons and learn fast
                -------------------------------------------------------------------------------
-------------------------------------------------------------------------------

Tuning: Standard

Instructions:
        Very easy, play along to get timing

| x  Mute note

Pattern:
    FIG 1. X12, FIG 2., FIG 3., FIG 1. X4, FIG1. X2(solo)
    FIG 2., FIG 3., FIG 1. X6, FIG 2. X2, FIG 3., FIG 1. X6

FIG 1.
e|-----------------------|
B|-----------------------|
G|-------2---------------|
D|-7-X-X-2-X-X-3-3---3-5-|
A|-5-X-X-0-X-X-3-3---3-5-|
E|---------X-X-1-1-0-1-3-|

FIG 2.
e|-------------------------------------------------|
B|-------------------------------------------------|
G|-------------------------------------------------|
D|-3-3-3-3-3-3-3-3-5-5-5-5-5-5-5-5-3-3-3-3-5-5-5-5-|
A|-1-1-1-1-1-1-1-1-5-5-5-5-5-5-5-5-3-3-3-3-3-3-3-3-|
E|-----------------3-3-3-3-3-3-3-3-1-1-1-1---------|

FIG 3.
e|-------------------------------------------------|
B|-------------------------------------------------|
G|-------------------------------------------------|
D|-3-3-3-3-3-3-3-3-5-5-5-5-5-5-5-5-5-5-5-5-5-5-5-5-|
A|-1-1-1-1-1-1-1-1-5-5-5-5-5-5-5-5-3-3-3-3-3-3-3-3-|
E|-----------------3-3-3-3-3-3-3-3-----------------|


She was the queen of an evil galaxy
Living off the money she suckered from me
She wasn't satisfied living by the airport in Queens
Can you tell me now what any of it means?

Now listen
I see no point in trying to get you to listen
Your hypnotised by the camera you're kissing
My dogs are barking, man
All your cats are hissing tonight
Nothing gets settled when our animals fight
You look good in pictures
But I think that the attention's going to your brain
Hey little sister why do I only see you on the white train?

Riding on the white train
Riding on the white train
Riding on the white train
Riding on the white train
Solo!

Solo!
Solo!
Solo!

Now you got yourself into a sticky situation
But I don't make moves unless there's some reciprocation
I gotta know now should I be anticipating love
Or will you slap me with your b**ches' gloves?
Ow!

Satan destroys you
But Jesus puts you in a bowl and smokes you
Hey little sister!
Your dreams are dying living on the white avenue

Living on the white avenue
Living on the white avenue
Living on the white avenue
Living on the white avenue
Ooh white avenue

===============================================================================
            

comments powered by Disqus
↑ Back to top | Electric Six Tabs for Riding On The White Train. Lyrics for acoustic guitar and electric guitar. Tablatures and chords are parodies/interpretations of the original songs. You may use it for private study, scholarship, research or language learning purposes only