» » »

Randy's Hot Tonight Bass tabs (ver.1)

Artists:  A B C D E F G H I J K L M N O P Q R S T U V W X Y Z # 

Randy's Hot Tonight Bass tabs (ver.1)

Electric Six
Rating:
0/5 (0 votes)

Hard to play? Try these video lessons and learn fast.
                ---------------------------------------------------------------------------
	           Electric Six  - Randy's Hot Tonight
---------------------------------------------------------------------------


Tuning:   E A D G 



G|------------3---4---3-------------------------------------------|
D|---4----6----------------6---4---------4---6---4---3------------|
A|---------------------------------6----------------------6---4---|
E|----------------------------------------------------------------|



G|----------------------------------------------------------------------|
D|--------------------3-------------------------------------------------|
A|------------4---6-------6---4-----------------------------------------|
E|---6----6-----------------------6---6---0---6---4---6---4---6---4---0-|



| /  slide up
| \  slide down
| h  hammer-on
| p  pull-off
| ~  vibrato
| +  harmonic
| x  Mute note =========================================================================
            
Hard to play? Try these video lessons and learn fast. | Correct




comments powered by Disqus
↑ Back to top | Tablatures and chords are parodies/interpretations of the original songs. You may use it for private study, scholarship, research or language learning purposes only