» » »

Radio Ga Ga Bass tabs (ver.2)

Artists:  A B C D E F G H I J K L M N O P Q R S T U V W X Y Z # 

Radio Ga Ga Bass tabs (ver.2)

Electric Six
Rating:
0/5 (0 votes)

Tabs too difficult? Try these video lessons and learn fast.
                -------------------------------------------------------------------------------
                           Radio Ga Ga - Electric Six
-------------------------------------------------------------------------------

Tuning:Standard

Intro
G|--------------------------------------------------------------------------|
D|----33---3----33---3----33---3----33---3----33---3---33---3---55---5---55-|
A|--------------------------------------------------------------------------|
E|--1----1----1----1----1----1----1----1----1----1---1----1---3----3---3----|

G|--------------------------------------------------------------------------|
D|----5----88---8---88---8----55---5----------------------------------------|
A|------------------------------------1------12-13-12-----------------------|
E|--3----6----6---6----6----3----3------1-1-----------13--------------------|

Verse
G|--------------------------------------------------------------------------|
D|--------------------------------------------------------------------------|
A|--------------------------------------------------------------------------|
E|--1-1--1-1--1-1--1-1--1-3--3-3--1-3--3-3--3-6--6-6--6-6--6-6--6-3--3-3----|

G|--------------------------------------------------------------------------|
D|--------------------------------------------------------------------------|
A|----1-----12-13-12--------------------------------------------------------|
E|--3---1-1----------13--1-1--1-1--0-1--1-1--1-3--3-3--1-3--3-3--3-6--6-6---|

G|--------------------------------------------------------------------------|
D|--------------------------------------------------------------------------|
A|------------------------1------12-13-12-----------------------------------|
E|--4-6--6-6--6-3--3-3--3---1-1-----------13--------------------------------|

Pre-Chorus "So don't become"
G|--------------------------------------------------------------------------|
D|--------------------------------------------------------------------------|
A|-----------------------------1------12-13-12------------------------------|
E|--1----4----6----3----1----3---1-1-----------13---------------------------|
   X16  X16  X16  X16  X16  X16

Chorus
G|--------------------------------------------------------------------------|
D|--------------------------------------------------------------------------|
A|--6---1-----1-----1------6--1-----1-----6--1---3---5---3------------------|
E|--------1-1---1-1---1-1-------1-1---1-1-----------------------------------|
                                                        X16
Solo
G|---------------|
D|----3-3---3----|
A|---------------| X6
E|--1-----1------|

Verse 2
G|--------------------------------------------------------------------------|
D|--------------------------------------------------------------------------|
A|--------------------------------------------------------------------------|
E|--1--1-1--1-1--0-1--1-3--3-3--1-3--3-3--3-6--6-6--4-6--6-6--6-3--3-3------|

G|-------------------------|
D|-------------------------|
A|----1-----12-13-12-------|
E|--3---1-1----------13----|

Pre Chorus

Outro Chorus
G|--------------------------------------------------------------------------|
D|--------------------------------------------------------------------------|
A|--6---1-----1-----1------6-----1-----1-----6--1---3---5---3---------------|
E|--------1-1---1-1---1-1----------1-1---1-1------------------------1-------|


| /  slide up
| \  slide down
| h  hammer-on
| p  pull-off
| ~  vibrato
| +  harmonic
| x  Mute note
===============================================================================
            
Tabs too difficult? Try these video lessons and learn fast.


comments powered by Disqus
↑ Back to top | Tablatures and chords are parodies/interpretations of the original songs. You may use it for private study, scholarship, research or language learning purposes only