» » »

Pulling The Plug On The Party Tabs (ver.1)

Artists:  A B C D E F G H I J K L M N O P Q R S T U V W X Y Z # 

Pulling The Plug On The Party Tabs (ver.1)

Electric Six
Rating:
5/5 (1 vote)

Hard to play? Try these video lessons and learn fast.
                
Very simple, only really 3 riffs in the whole song so here they are and you can very 
work out where they go yourself.


Intro riff/"Pulling the plug on the party..."


e|---------------------|
B|-10------------------|
G|-11--6-7--7-9--9-11--|
D|-11--6-7--7-9--9-11--| x 3
A|--9--4-5--5-7--7-9---|
E|---------------------|


Verse Riff:

e|--------------------|
B|-10-----------------|
G|-11--6-7------------|
D|-11--6-7---9999-77--|
A|--9--4-5---9999-77--|
E|-----------7777-55--|

Verses end with "One of these days I'm gonna..":

e|--------------------|
B|--------------------|
G|--------------------|
D|---5555555-2222222--|
A|---5555555-2222222--|
E|---3333333-0000000--|


"Baby now look at what you made me do" Riff:

e|------------------------------------------------|
B|------------------------------------------------|
G|---99999999-111111111111111111-7777777----------|
D|---99999999-111111111111111111-7777777-7777777--|
A|---77777777--9-9-9-9-9-9-9-9-9-5555555-7777777--|
E|---------------------------------------5555555--|


Easy eh?
            
Hard to play? Try these video lessons and learn fast. | Correct




comments powered by Disqus
↑ Back to top | Tablatures and chords are parodies/interpretations of the original songs. You may use it for private study, scholarship, research or language learning purposes only