» » »

Electric Six, Nuclear War Bass tabs (ver.1)

Artists:  A B C D E F G H I J K L M N O P Q R S T U V W X Y Z # 

Nuclear War Bass tabs (ver.1)

Electric Six Tabs
 Rating:
4/5 (4 votes)
Nuclear War lessons Tabs too difficult? Try these video lessons and learn fast
                Electric Six						
	T = slap
Bass & Drums intro:
G---------------------------------|
D---------------------------------|
A—4-4-4-4-4-4-4-4-4-4-4-4-4-4-4-4-|
E---------------------------------|	then guitar comes in

G---------------------------------|
D---------------------------------|
A—4-4-4-4-4-4-4-4-4-4-4-4-4-4-4-4-|
E---------------------------------|	

Chorus
G------------------------------|------------------------------|	X4
D-2-4-4-2-4--2-----------------|------------------------------|
A--------------4---4-4-4-4-4-4-|-0------------4---------------|
E------------------------------|------------------------------|

Riff1					X4	then 		  FILL   X1
G---------------------------------|-----------------------|
D---------------------------------|-----------------------|
A-0-0-0-0-2-2-2-2-3-3-3-3-4-4-4-4-|-4-4-4-4-4-4-4-4-4-2---|
E---------------------------------|-----------------------|

Chorus
G------------------------------|------------------------------|	X2
D-2-4-4-2-4--2-----------------|------------------------------|
A--------------4---4-4-4-4-4-4-|-2---0--------4---------------|
E------------------------------|------------------------------|

Riff 2					
G---------------------------------|	x4
D---------------------------------|			“Solo”	00:58
A-0-0-0-0-0---0-4---4-4-4-4-4-4-4-|
E---------------------------------|
Outro
G---------------------------|
D---------------------------|
A-0-0-0-0-2-2-2-2-3-3-3-3-4-|
E---------------------------|
		 T
That’s it. It’s a short but ace song!
            
Submit corrections

comments powered by Disqus
↑ Back to top | Electric Six Bass for Nuclear War. Lyrics for acoustic guitar and electric guitar. Tablatures and chords are parodies/interpretations of the original songs. You may use it for private study, scholarship, research or language learning purposes only